Oops, an error
Loading. Please wait.

The Modern Leper Tab

version 1
version 1

Whole song

12,682 views 1 this week
1 commentread comment
1 2 3 4 5
please rate
add to favorites
launch autoscroll
font size
0
reset
how to read this tab
guitar tuner
Autoscroll
slow
fast
+/-
esc
set tempo
stop
Help us to improve Ultimate-Guitar.com Take our survey!
×
Author
Difficulty
Tuning
novice
D A D G B E
----------------------------------------------------------------------------
                             SONG NAME - Band Name
----------------------------------------------------------------------------
Tabbed by:joel.wood55
Email:joel.wood55@gmail.com

This is the way i play the song, so im not entirely sure that its right. Emphasise notes 
are parenthesised (()) and have fun. Listen to the song for the rhythms. Anyway, you 
probably get the gist of the song from this tab.

Tuning:Drop D (eBGDAD

Verse
(A cripple walks amongst you all..)
      D            G    D        G    D
e|----2----2--2-2--3-3--2--2--2--3----2-------------------------------------|
B|----3----3--3-3--3-3--3--3--3--3----3-------------------------------------|
G|----2----2--2-2--0-0--2--2--2--0----2-------------------------------------|
D|---(0)-----------0-0-(0)-------0---(0)------------------------------------|
A|---(0)----------(0)0-(0)-------0---(0)------------------------------------|
D|---(0)----------(5)5-(0)-------5---(0)------------------------------------|

Chorus
(Was that you, in front of me..)
    D   Bm   A    D
e|--2---2---------2----------------------------------------------------------|
B|--3---3----2----3----------------------------------------------------------|
G|--2---4----2----2----------------------------------------------------------|
D|--0---4----2----0----------------------------------------------------------|
A|--0---2---------0----------------------------------------------------------|
D|--0---X---------0----------------------------------------------------------|

Bridge
(....holding me uuuuuuuuuuuuuuuuuuuup)
    D   A    D    G
e|--2--------2----3----------------------------------------------------------|
B|--3---2----3----0----------------------------------------------------------|
G|--2---2----2----0----------------------------------------------------------|
D|--0---2----0----0----------------------------------------------------------|
A|--0--------0----0----------------------------------------------------------|
D|--0--------0----5----------------------------------------------------------|
Suggest correction
Give kudos to tab author, rate the tab!
1 2 3 4 5
comments
print report bad tab
1 comment total.
0 reply
tecklepie 62 wrote on February 3 2009, 02:45 pm

i think the chorus sounds better D Bm A Bm

guest
You may want to rate the tab now too:
select rating
Please do not post tabs as comments. Select "correction" instead!