Oops, an error
Loading. Please wait.

The Modern Leper Tab

version 2
version 2

Whole song

78,993 views 54 this week
4 commentsread comments
1 2 3 4 5
x 34
add to favorites
×
Save as Personal and add changes to this tab that will be seen only by you. Learn more ›
×
You can save this tab as Personal to edit and correct it or add notes. All changes will be seen only by you. Learn more »
save as personal
new!
launch autoscroll
font size
0
reset
how to read this tab
guitar tuner
Autoscroll
slow
fast
+/-
esc
set tempo
stop
Author
Difficulty
Tuning
Unregistered
novice
D A D G B E
Drop D Tuning

[Intro]
e|-----------------------------------------------------|
B|-----------------------------------------------------|
G|-----------------------------------------------------|
D|-7-7-7-7-7-7-7-7-------------------------------------|
A|-9-9-9-9-9-9-9-9-10-10-10-10-9-9-9-9-5-5-5-5-5-5-5-5-|
D|-0-0-0-0-0-0-0-0-8--8--8--8--9-9-9-9-5-5-5-5-5-5-5-5-|

(played instrumental x1 then x3 with vocals)
e|---------------------------------------------------------------------|
B|---------------------------------------------------------------------|
G|---------------------------------------------------------------------|
D|-7-7-7-7-7-7-7-7-7-7-7-7-7-7-7-7-------------------------------------|
A|-9-9-9-9-9-9-9-9-9-9-9-9-9-9-9-9-10-10-10-10-9-9-9-9-5-5-5-5-5-5-5-5-|
D|-0-0-0-0-0-0-0-0-0-0-0-0-0-0-0-0-8--8--8--8--9-9-9-9-5-5-5-5-5-5-5-5-|

(then play intro ending)
e|-------------------------------------------------------------------------------------|
B|---------------------------------------------------------------------3-3-3-3-2-2-2-2-|
G|---------------------------------------------------------------------4-4-4-4-3-3-3-3-|
D|-7-7-7-7-7-7-7-7-7-7-7-7-7-7-7-7-------------------------------------x-x-x-x-x-x-x-x-|
A|-9-9-9-9-9-9-9-9-9-9-9-9-9-9-9-9-10-10-10-10-9-9-9-9-5-5-5-5-5-5-5-5-5-5-5-5-4-4-4-4-|
D|-0-0-0-0-0-0-0-0-0-0-0-0-0-0-0-0-8--8--8--8--9-9-9-9-5-5-5-5-5-5-5-5-5-5-5-5-4-4-4-4-|

[Chorus] (x2)
e|-----------------------------------------------------------------|
B|-----------------3-3-3-3-3-3-3-3-5-5-5-5-5-5-5-5-7-7-7-7-7-3-3-3-|
G|-7-7-7-7-7-7-7-7-4-4-4-4-4-4-4-4-6-6-6-6-6-6-6-6-7-7-7-7-7-4-4-4-|
D|-0-0-0-0-0-0-0-0-x-x-x-x-x-x-x-x-x-x-x-x-x-x-x-x-x-x-x-x-x-x-x-x-|
A|-0-0-0-0-0-0-0-0-5-5-5-5-5-5-5-5-7-7-7-7-7-7-7-7-9-9-9-9-9-5-5-5-|
D|-0-0-0-0-0-0-0-0-5-5-5-5-5-5-5-5-7-7-7-7-7-7-7-7-9-9-9-9-9-5-5-5-|

[Verse instrumental] (x2) (then with vocals x3)
e|-------------------------------------------------------------------|
B|----------------------------------------3-3-3333-222---------------|
G|-7-7-7777-77-77-7--7---7--7--7--7-77-77-4-4-4444-333-77-7777-77-77-|
D|-0-0-0000-00-00-x--x---x--x--x--x-xx-xx-x-x-xxxx-xxx-00-0000-00-00-|
A|-0-0-0000-00-00-10-10--10-10-10-9-99-99-5-5-5555-444-00-0000-00-00-|
D|-0-0-0000-00-00-8--8---8--8--8--9-99-99-5-5-5555-444-00-0000-00-00-|

[Verse ending]
e|------------------------------------------------------------------------|
B|----------------------------------------3-3-3333-33-33-3-3-333-2-22-222-|
G|-7-7-7777-77-77-7--7---7--7--7--7-77-77-4-4-4444-44-44-4-4-444-4-44-444-|
D|-0-0-0000-00-00-x--x---x--x--x--x-xx-xx-x-x-xxxx-xx-xx-x-x-xxx-x-xx-xxx-|
A|-0-0-0000-00-00-10-10--10-10-10-9-99-99-5-5-5555-55-55-5-5-555-4-44-444-|
D|-0-0-0000-00-00-8--8---8--8--8--9-99-99-5-5-5555-55-55-5-5-555-4-44-444-|

[Chorus] (x4)
e|-----------------------------------------------------------------|
B|-----------------3-3-3-3-3-3-3-3-5-5-5-5-5-5-5-5-7-7-7-7-7-3-3-3-|
G|-7-7-7-7-7-7-7-7-4-4-4-4-4-4-4-4-6-6-6-6-6-6-6-6-7-7-7-7-7-4-4-4-|
D|-0-0-0-0-0-0-0-0-x-x-x-x-x-x-x-x-x-x-x-x-x-x-x-x-x-x-x-x-x-x-x-x-|
A|-0-0-0-0-0-0-0-0-5-5-5-5-5-5-5-5-7-7-7-7-7-7-7-7-9-9-9-9-9-5-5-5-|
D|-0-0-0-0-0-0-0-0-5-5-5-5-5-5-5-5-7-7-7-7-7-7-7-7-9-9-9-9-9-5-5-5-|

[Bridge] (x3)
e|------------------------------------------|
B|----------------5-5-5557-77-77-33-3333-22-|
G|-7-7-7777-77-77-6-6-6667-77-77-44-4444-33-|
D|-0-0-0000-00-00-x-x-xxxx-xx-xx-xx-xxxx-xx-|
A|-0-0-0000-00-00-7-7-7779-99-99-55-5555-44-|
D|-0-0-0000-00-00-7-7-7779-99-99-55-5555-44-|

[Bridge ending] 
e|--------------------------------------------------------------|
B|----------------5-5-5557-77-77-33-3333-33-33-3-3-333-2-22-222-|
G|-7-7-7777-77-77-6-6-6667-77-77-44-4444-44-44-4-4-444-3-33-333-|
D|-0-0-0000-00-00-x-x-xxxx-xx-xx-xx-xxxx-xx-xx-x-x-xxx-x-xx-xxx-|
A|-0-0-0000-00-00-7-7-7779-99-99-55-5555-55-55-5-5-555-4-44-444-|
D|-0-0-0000-00-00-7-7-7779-99-99-55-5555-55-55-5-5-555-4-44-444-|

[Chorus] (x4)
e|-----------------------------------------------------------------|
B|-----------------3-3-3-3-3-3-3-3-5-5-5-5-5-5-5-5-7-7-7-7-7-3-3-3-|
G|-7-7-7-7-7-7-7-7-4-4-4-4-4-4-4-4-6-6-6-6-6-6-6-6-7-7-7-7-7-4-4-4-|
D|-0-0-0-0-0-0-0-0-x-x-x-x-x-x-x-x-x-x-x-x-x-x-x-x-x-x-x-x-x-x-x-x-|
A|-0-0-0-0-0-0-0-0-5-5-5-5-5-5-5-5-7-7-7-7-7-7-7-7-9-9-9-9-9-5-5-5-|
D|-0-0-0-0-0-0-0-0-5-5-5-5-5-5-5-5-7-7-7-7-7-7-7-7-9-9-9-9-9-5-5-5-|

[Outro]
e|---|
B|---|
G|-7-|
D|-0-|
A|-0-|
D|-0-|


************************************

| x  Dead note

************************************
Suggest correction
comments
print report bad tab
4 comments total. Showing first comments.
+11 reply
DonTago 3,251 Sep 25, 2008 11:01 AM

This is a great tab, it worked out amazing for me! Im glad someone else out there is working on tabbing Frightened Rabbit!

-1 reply
snuretheblur 10 Jun 04, 2012 09:16 PM

the first time i looked at this i must of been high because i only looked at the intro. its such a perfect tab. sounds fantastic on acoustic. awesome 6 stars if i could

-1 reply
Joet3006 10 Aug 19, 2014 11:47 AM

Clearly wrong.

guest
Wanna post a correction for this tab? Suggest correction