Oops, an error
Loading. Please wait.

The Twist Bass Tab

1,634 views 1 this week
no commentswrite comment
1 2 3 4 5
please rate
add to favorites
launch autoscroll
font size
0
reset
guitar tuner
Tab Pro tools
  • play this tab
  • loop segment
  • change instrument
  • show fretboard
  • metronome
×
Best way to learn
"The Twist"
Autoscroll
slow
fast
+/-
esc
set tempo
stop
Contributor
Band: frightened rabbit
Album: the midnight organ
Song: the twist

Absolutely love this band at the moment

It may be an octave high sometimes but I’m
pretty sure most notes are correct

please rate

0:23

G|----------------------------------|
D|-5-5-5-5-5-5-5-0-5-5-5-5-5-5-5-0--| 
A|----------------------------------| x2
E|----------------------------------|

Pause

0:47

G|----------------------------------|
D|-5-5-5-5-5-5-5-7-5-5-5-5-5-5-5-7--| 
A|----------------------------------|
E|----------------------------------|

G|-------------------------------4--|
D|-5-5-5-5-5-5-5-7-5-5-5-5-5-5-7----| 
A|----------------------------------|
E|----------------------------------|

G|-5-5-5-5---------7-7-7-7-4-4-4-4--|
D|---------5-5-5-5------------------| 
A|----------------------------------|
E|----------------------------------|

G|-5-5-5-5---------7-7-7-7-7-7-7-7--|
D|---------5-5-5-5------------------| 
A|----------------------------------|
E|----------------------------------|

G|-5-5-5-5---------7-7-7-7-4-4-4-4--|
D|---------5-5-5-5------------------| 
A|----------------------------------|
E|----------------------------------|

G|-5-5-5-5---------7-7-7-7-7-7-7-7--|
D|---------5-5-5-5------------------| 
A|----------------------------------|
E|----------------------------------|

1:10

G|-7-7-7-7-7-7-7-7-5-5-5-5-5-5-5-5-5-5-5-5-5-5-5-5--|
D|--------------------------------------------------| 
A|--------------------------------------------------|
E|--------------------------------------------------|

1:17

G|----------------------------------|
D|-5-5-5-5-5-5-5-7-5-5-5-5-5-5-5-7--| 
A|----------------------------------| x4
E|----------------------------------|

1:33

G|---------7-7-7-7---------5-5-5-5--|
D|-5-5-5-5---------5-5-5-5----------| 
A|----------------------------------| x4
E|----------------------------------|

1:49

G|----------------------------------|
D|-5-5-5-5-5-5-5-7-5-5-5-5-5-5-5-7--| 
A|----------------------------------|
E|----------------------------------|

G|-------------------------------4--|
D|-5-5-5-5-5-5-5-7-5-5-5-5-5-5-7----| 
A|----------------------------------|
E|----------------------------------|

G|-5-5-5-5---------7-7-7-7-4-4-4-4--|
D|---------5-5-5-5------------------| 
A|----------------------------------|
E|----------------------------------|

G|-5-5-5-5---------7-7-7-7-7-7-7-7--|
D|---------5-5-5-5------------------| 
A|----------------------------------|
E|----------------------------------|

G|-5-5-5-5---------7-7-7-7-4-4-4-4--|
D|---------5-5-5-5------------------| 
A|----------------------------------|
E|----------------------------------|

G|-5-5-5-5---------7-7-7-7-7-7-7-7-7-7-7-7-7-7-7-7--|
D|---------5-5-5-5----------------------------------| 
A|--------------------------------------------------|
E|--------------------------------------------------|

2:15

G|-5-5-5-5-5-5-5-5-5-5-5-5-5-5-5-5----------------------------------|
D|---------------------------------5-5-5-5-5-5-5-5-5-5-5-5-5-5-5-5--| 
A|------------------------------------------------------------------| x4
E|------------------------------------------------------------------|

2:47

G|-12-12-12-12-------------11-11-11-11-------------|
D|-------------12-12-12-12-------------12-12-12-12-| 
A|-------------------------------------------------|
E|-------------------------------------------------|

G|-------------------------11-11-11-11-11-11-11-11-|
D|-14-14-14-14-12-12-12-12-------------------------| 
A|-------------------------------------------------|
E|-------------------------------------------------|

G|-12-12-12-12-------------11-11-11-11-------------|
D|-------------12-12-12-12-------------12-12-12-12-| 
A|-------------------------------------------------|
E|-------------------------------------------------|

G|-------------------------11-11-11-11-11-11-11-11-|
D|-14-14-14-14-12-12-12-12-------------------------| 
A|-------------------------------------------------|
E|-------------------------------------------------|

G|-11-11-11-11-11-11-11-11-12-12-12-12-12-12-12-12-12-12-12-12-12-12-12-12-|
D|-------------------------------------------------------------------------| 
A|-------------------------------------------------------------------------|
E|-------------------------------------------------------------------------|

3:09

G|----------------------------------|
D|-5-5-5-5-5-5-5-7-5-5-5-5-5-5-5-7--| 
A|----------------------------------| x4
E|----------------------------------|

Finish on

G|-----|
D|-----| 
A|-5.--|
E|-----|
comments
We did not receive enough feedback on this tab! Please rate:
print report bad tab
1 2 3 4 5
I want to post or [tab]
guest
You may want to rate the tab now too:
select rating
Please do not post tabs as comments. Select "correction" instead!