Oops, an error
Loading. Please wait.

The Wrestle Tab

3,265 views 1 this week
1 commentread comment
1 2 3 4 5
please rate
add to favorites
launch autoscroll
font size
0
reset
how to read this tab
guitar tuner
Autoscroll
slow
fast
+/-
esc
set tempo
stop
Help us to improve Ultimate-Guitar.com Take our survey!
×
Difficulty
intermediate
Frightened Rabbit - The Wrestle
tab by punkshui

Intro Chords (he plays the notes on the low E string with his thumb)
0----0
1----1
2----2
0----3
3----3
1----1

Verse Riff
|---------------------------------------------------------------|
|---------------------------------------------------------------|
|--0----0-0-0-0---0----------------x-x-x-x-x-x--x---------------|
|--x----x-x-x-x---x------0-0-------2-2-2-2-2-2--2------0-0------|
|--3----3-3-3-3---3---xx-x-x-xx----0-0-0-0-0-0--0---xx-2-2-xx---|
|---------------------xx-3-3-xx---------------------xx-----xx---|


Chorus Chords x3
0----x----0----3
1----1----1----1        1
0----0----2----0
2----2----2----0
3----0----0----2
3----x----x----3


then:

"the clotheless wrestle"
0----0
1----1
2----2
2----0h2
0----0
x----x

"the clotheless animal"
3----0
1----1
0----2p0
0----3
2----3
3----0


then play this 3 times

0----3----0----0
1----1----1----1
0----0----2----2
2----0----2----3
3----2----0----3
3----3----x----0


then back to verse riff
Suggest correction
Give kudos to tab author, rate the tab!
1 2 3 4 5
comments
print report bad tab
1 comment total.
0 reply
wbalston 194 wrote on September 29 2013, 09:10 pm

don't forget capo 1

guest
You may want to rate the tab now too:
select rating
Wanna post a correction for this tab? Suggest correction