Oops, an error
Loading. Please wait.

Alive tab

version 2
version 2

Whole song

by Frio
561 views 1 this week
no commentswrite comment
1 2 3 4 5
2 more votes to show rating
add to favorites
×
Save as Personal and add changes to this tab that will be seen only by you. Learn more ›
×
You can save this tab as Personal to edit and correct it or add notes. All changes will be seen only by you. Learn more »
launch autoscroll
font size
0
reset
how to read this tab
guitar tuner
edit
Autoscroll
slow
fast
+/-
esc
set tempo
stop
Difficulty
Title: Alive
Artist: Frio
Tabbed by: Raphael Beren T. Austria
Album: Frio
Date: August 16, 2006
Email and friendster: beren_07@yahoo.com

Intro
|---14--14--14--14--18--18--18--18--14--14--14--14--16--16--18--18--|
|-14--14--14--14--14--14--14--14--14--14--14--14--14--14--14--14----|
|-------------------------------------------------------------------|
|-------------------------------------------------------------------|
|-------------------------------------------------------------------|
|-------------------------------------------------------------------|

Verse
 Am           C         G         G
|-0-----------0---------3---------3-------------------|
|-1-----------1---------3---------3-------------------|
|-2-----------0---------0---------0-------------------|
|-2-----------2---------0---------0-------------------|
|-0-----------3---------2---------2-------------------|
|-----------------------3---------3-------------------|
  Tomorrow never comes... the day will end today.....

Lead guitar
|--------------------------------------------------|
|--------------------------------------------------|
|--------------------------------------------------|
|-14h16-14h16-14h16-14h16-14h16-14h16-14h16-14h16--|
|--------------------------------------------------|
|--------------------------------------------------|

 Am           C         G         G
|-0-----------0---------3---------3-------------------|
|-1-----------1---------3---------3-------------------|
|-2-----------0---------0---------0-------------------|
|-2-----------2---------0---------0-------------------|
|-0-----------3---------2---------2-------------------|
|-----------------------3---------3-------------------|
 you come to change the truth.... forget it anyway.....

Pre-Chorus
  Am         C          Am           C 
|-0----------0----------0------------0-----------|
|-1----------1----------1------------1-----------|
|-2----------0----------2------------0-----------|
|-2----------2----------2------------2-----------|
|-0----------3----------0------------3-----------|
|------------------------------------------------|
 I'll never be a man... So take me as i am..

Chorus
  G         D         C           C
|-3---------2---------0-----------0--------------|
|-3---------3---------1-----------1--------------|
|-0---------2---------0-----------0--------------| play this twice
|-0---------0---------2-----------2--------------|
|-2-------------------3-----------3--------------|
|-3----------------------------------------------|
  Make me alive, make me suffer, make me feel....

Verse 2
Am           C         G         G
|-0-----------0---------3---------3-------------------|
|-1-----------1---------3---------3-------------------|
|-2-----------0---------0---------0-------------------|
|-2-----------2---------0---------0-------------------|
|-0-----------3---------2---------2-------------------|
|-----------------------3---------3-------------------|
  just leave me in the rain... my life is in the drain.....

Lead guitar
|--------------------------------------------------|
|--------------------------------------------------|
|--------------------------------------------------|
|-14h16-14h16-14h16-14h16-14h16-14h16-14h16-14h16--|
|--------------------------------------------------|
|--------------------------------------------------|

 Am           C         G         G
|-0-----------0---------3---------3-------------------|
|-1-----------1---------3---------3-------------------|
|-2-----------0---------0---------0-------------------|
|-2-----------2---------0---------0-------------------|
|-0-----------3---------2---------2-------------------|
|-----------------------3---------3-------------------|
 i'll seek your love forever.... i beg not a different game.....

Lead guitar
|--------------------------------------------------|
|--------------------------------------------------|
|--------------------------------------------------|
|-14h16-14h16-14h16-14h16-14h16-14h16-14h16-14h16--|
|--------------------------------------------------|
|--------------------------------------------------|

Pre-Chorus
  Am         C          Am           C 
|-0----------0----------0------------0-----------|
|-1----------1----------1------------1-----------|
|-2----------0----------2------------0-----------|
|-2----------2----------2------------2-----------|
|-0----------3----------0------------3-----------|
|------------------------------------------------|
 I'll never be a man... embrace me as i am..

Chorus
Adlib just play the chords from the chorus
Pre-Chorus
Chorus x2


Paki rate nlng po itong ginawa ko..... maraming salamat!!!!
hi nga pala kay rhozette ng 4-D sa SBIS..

            
            
Suggest correction
Creating personal tab
Creating personal tab
You can edit any tab online and save it as your Personal.

You can edit, replace or remove any tab part or add personal notes – all changes will be seen only by you.

Personal tabs can be accessed anytime from any device, even offline.
Learn more »
Give kudos to tab author, rate the tab!
1 2 3 4 5
comments
print report bad tab
guest
Wanna post a correction for this tab? Suggest correction