Oops, an error
Loading. Please wait.

Could Have Been Chords

version 3
version 3

Whole song

by Frio
4,099 views 3 this week
no commentswrite comment
1 2 3 4 5
excellent!
x 3
add to favorites
launch autoscroll
font size
0
reset
transpose
0
reset
simplify chords
display chords
guitar tuner
Autoscroll
slow
fast
+/-
esc
set tempo
stop
Help us to improve Ultimate-Guitar.com Take our survey!
×
Difficulty
novice
Title: Could have been 
artist: fRio
tabbed by: kuLot kK!



Use this chords:

     G		C	  Em	    D	      Am7	Bm7
 
E|---3------|---3-----|---3-----|---3-----|---0-----|---2-----|
B|---3------|---3-----|---3-----|---3-----|---1-----|---3-----|
G|---0------|---0-----|---0-----|---2-----|---0-----|---0-----|
D|---0------|---2-----|---2-----|---0-----|---2-----|---0-----|
A|---2------|---3-----|---2-----|---------|---0-----|---2-----|
E|---3------|---x-----|---0-----|---------|---------|---------|



Intro:  G C Em D 2x

   		
     G		         C		     Em 
	If only I could turn back the time when 
	
			     D	
	All the words we say we can make it rhyme I
	
     G			    C	        Em
	Just can't get you off my mind I can

		   D
	Only smile when you where mine



	
		  Am7	       Bm7		C
	I've been waiting for you all night long

		 Am7	      Bm7		C     D
	gotta listen to your voice along the phone



     G		    D		   Em
        could have been a perfect love

      		     C
	I'm still tryin'	

     G     	     D		       Em
	I know your lost your faith in me

		   C
	now i'm cryin'	

     G 		     D		 Em
	I know i've been such a fool

		      C
	i've been blinded

		G	      D	 	    Em	      C 	
	can we just get back to where we started  
					E|--3-3--|--3-3--|
					B|--3--3-|--3--3-|
					G|--0----|--0----|
					D|--2----|--2----|
					A|--2----|--3----|
					E|-------|--0----|

		
	       G		     D 			Em	 C
	coz' i miss your grips and i miss the way you kiss me
						     E|--3-3--|--3-3--|
						     B|--3--3-|--3--3-|
						     G|--0----|--0----|
						     D|--2----|--2----|
						     A|--2----|--3----|
						     E|-------|--0----|	



     G			     C		       
	I know it hard too, id giving you down 
		
	Em		    D		
	begun on my knees Tell me what should i do
	
     G			     C		  Em
	I just can't get you off my mind I can 
	
		   D
	only smile when you are mine
			



	[refrain]

	[Chorus]





	ADlib:

						          

	E|--1~s3~--3~s5~--5~s6~--6~s8~--8-6-5-3-1~---3h5h3-1~-| <-ung 1 pull
	B|----------------------------------------------------|  s 2nd tym.
	G|----------------------------------------------------|	2x to 
	D|---------------------------------------------------=|
	A|----------------------------------------------------|
	E|----------------------------------------------------|





	[chorus]



	

	heheheh almost done... tnx... i dedicate dz song to ms. jean key cabanado.
	god bless.. cnxa 1st tym q to gwa tab. pti bginer p lng me sa gtara. 
cnxa



	
comments
We did not receive enough feedback on this tab! Please rate:
print report bad tab
1 2 3 4 5
I want to post or [tab]
guest
You may want to rate the tab now too:
select rating
Please do not post tabs as comments. Select "correction" instead!