Oops, an error
Loading. Please wait.

Be Happy tab

by FRND
1,381 views 87 this week
3 commentsread comments
1 2 3 4 5
1 last vote to show rating
add to favorites
×
Save as Personal and add changes to this tab that will be seen only by you. Learn more ›
×
You can save this tab as Personal to edit and correct it or add notes. All changes will be seen only by you. Learn more »
launch autoscroll
font size
0
reset
how to read this tab
guitar tuner
edit
Autoscroll
slow
fast
+/-
esc
set tempo
stop
[Intro]
D#|----------------|--------|----------------|----------------|
A#|8---------8-----|7---8---|5---------5-----|5---------5-----|
F#|------0---------|--------|------0---------|------0---------|
C#|----------------|--------|----------------|----------------|
G#|7---7---7---7---|5-------|3---3---3---3---|3---3---3---3---|
D#|----------------|--------|----------------|----------------|

D#|----------------|--------|----------------|----------------|
A#|3---------3-----|----0---|----------------|0---------------|
F#|------0---------|2-------|0---------0-----|----------0-----|
C#|----------------|--------|------2---------|------2---------|
G#|----------------|2-------|----------------|----------------|
D#|3---3---3---3---|--------|0---0---0---0---|0---0---0---0---|

[Verse]
(Basically just the intro repeated twice, just one slight change at the end of the second repitition.)
D#|----------------|--------|----------------|----------------|
A#|8---------8-----|7---8---|5---------5-----|5---------5-----|
F#|------0---------|--------|------0---------|------0---------|
C#|----------------|--------|----------------|----------------|
G#|7---7---7---7---|5-------|3---3---3---3---|3---3---3---3---|
D#|----------------|--------|----------------|----------------|

D#|----------------|--------|----------------|----------------|
A#|3---------3-----|----0---|----------------|0---------------|
F#|------0---------|2-------|0---------0-----|----------0-----|
C#|----------------|--------|------2---------|------2---------|
G#|----------------|2-------|----------------|----------------|
D#|3---3---3---3---|--------|0---0---0---0---|0---0---0---0---|

D#|----------------|--------|----------------|----------------|
A#|8---------8-----|7---8---|5---------5-----|5---------5-----|
F#|------0---------|--------|------0---------|------0---------|
C#|----------------|--------|----------------|----------------|
G#|7---7---7---7---|5-------|3---3---3---3---|3---3---3---3---|
D#|----------------|--------|----------------|----------------|

D#|----------------|--------|----------------|----------------|
A#|3---------3-----|----0---|----------0-----|----------------|
F#|------0---------|2-------|0---------------|0---------0-----|
C#|----------------|--------|------2---------|------2---------|
G#|----------------|2-------|----------------|----------------|
D#|3---3---3---3---|--------|0---0---0---0---|0---0---0---0---|

                             ^this part is different

[Pre-Chorus]
D#|----------------|----------------|----------------|----------------|
A#|3~--------------|----------------|3~--------------|----------------|
F#|----------------|----------------|----------------|----------------|
C#|----------------|----------------|1~--------------|----------------|
G#|3~--------------|----------------|----------------|----------------|
D#|----------------|----------------|----------------|----------------|

[Chorus]
D#|----------------|----------------|----------------|----------------|
A#|3---------3-----|3---------3-----|3---------3-----|3-------0-------|
F#|------0---------|------0---------|------0---------|----------------|
C#|----------------|----------------|----------------|----------------|
G#|----------------|----------------|----------------|----------------|
D#|3---3---3---3---|3---3---3---3---|3---3---3---3---|3-------2-------|

D#|----------------|----------------|----------------|----------------|
A#|----------0-----|----------0-----|----------0-----|----------------|
F#|0---------------|0---------------|0---------------|0-------0-------|
C#|------2---------|------2---------|------2---------|----0-------4---|
G#|----------------|----------------|----------------|7-------5-------|
D#|0---0---0---0---|0---0---0---0---|0---0---0---0---|----------------|

D#|----------------|----------------|----------------|----------------|
A#|3---------3-----|3---------3-----|7---------7-----|----------------|
F#|------0---------|------0---------|----------------|----------------|
C#|----------------|----------------|------7---------|----------------|
G#|3---3---3---3---|3---3---3---3---|5---5---5---5---|----------------|
D#|----------------|----------------|----------------|----------------|

(The following part is chopped up digitally in the song.)
D#|----------------|--------|----------------|----------------|
A#|8---------8-----|7---8---|5---------5-----|5---------5-----|
F#|------0---------|--------|------0---------|------0---------|
C#|----------------|--------|----------------|----------------|
G#|7---7---7---7---|5-------|3---3---3---3---|3---3---3---3---|
D#|----------------|--------|----------------|----------------|

D#|----------------|--------|----------------|----------------|
A#|8---------8-----|7---8---|5---------5-----|5---------5-----|
F#|------0---------|--------|------0---------|------0---------|
C#|----------------|--------|----------------|----------------|
G#|7---7---7---7---|5-------|3---3---3---3---|3---3---3---3---|
D#|----------------|--------|----------------|----------------|

[Verse]
D#|----------------|--------|----------------|----------------|
A#|8---------8-----|7---8---|5---------5-----|5---------5-----|
F#|------0---------|--------|------0---------|------0---------|
C#|----------------|--------|----------------|----------------|
G#|7---7---7---7---|5-------|3---3---3---3---|3---3---3---3---|
D#|----------------|--------|----------------|----------------|

D#|----------------|--------|----------------|----------------|
A#|3---------3-----|----0---|----------------|0---------------|
F#|------0---------|2-------|0---------0-----|----------0-----|
C#|----------------|--------|------2---------|------2---------|
G#|----------------|2-------|----------------|----------------|
D#|3---3---3---3---|--------|0---0---0---0---|0---0---0---0---|

D#|----------------|--------|----------------|----------------|
A#|8---------8-----|7---8---|5---------5-----|5---------5-----|
F#|------0---------|--------|------0---------|------0---------|
C#|----------------|--------|----------------|----------------|
G#|7---7---7---7---|5-------|3---3---3---3---|3---3---3---3---|
D#|----------------|--------|----------------|----------------|

D#|----------------|--------|----------------|----------------|
A#|3---------3-----|----0---|----------0-----|----------------|
F#|------0---------|2-------|0---------------|0---------0-----|
C#|----------------|--------|------2---------|------2---------|
G#|----------------|2-------|----------------|----------------|
D#|3---3---3---3---|--------|0---0---0---0---|0---0---0---0---|

[Pre-Chorus]
D#|----------------|----------------|----------------|----------------|
A#|3~--------------|----------------|3~--------------|----------------|
F#|----------------|----------------|----------------|----------------|
C#|----------------|----------------|1~--------------|----------------|
G#|3~--------------|----------------|----------------|----------------|
D#|----------------|----------------|----------------|----------------|

[Chorus]
D#|----------------|----------------|----------------|----------------|
A#|3---------3-----|3---------3-----|3---------3-----|3-------0-------|
F#|------0---------|------0---------|------0---------|----------------|
C#|----------------|----------------|----------------|----------------|
G#|----------------|----------------|----------------|----------------|
D#|3---3---3---3---|3---3---3---3---|3---3---3---3---|3-------2-------|

D#|----------------|----------------|----------------|----------------|
A#|----------0-----|----------0-----|----------0-----|----------------|
F#|0---------------|0---------------|0---------------|0-------0-------|
C#|------2---------|------2---------|------2---------|----0-------4---|
G#|----------------|----------------|----------------|7-------5-------|
D#|0---0---0---0---|0---0---0---0---|0---0---0---0---|----------------|

D#|----------------|----------------|----------------|----------------|
A#|3---------3-----|3---------3-----|7---------7-----|----------------|
F#|------0---------|------0---------|----------------|----------------|
C#|----------------|----------------|------7---------|----------------|
G#|3---3---3---3---|3---3---3---3---|5---5---5---5---|----------------|
D#|----------------|----------------|----------------|----------------|

[Instrumental without guitar]

[Bridge]
D#|----------------|--------|----------------|----------------|
A#|8---------8-----|7---8---|5---------5-----|5---------5-----|
F#|------0---------|--------|------0---------|------0---------|
C#|----------------|--------|----------------|----------------|
G#|7---7---7---7---|5-------|3---3---3---3---|3---3---3---3---|
D#|----------------|--------|----------------|----------------|

D#|----------------|--------|----------------|----------------|
A#|3---------3-----|----0---|----------------|0---------------|
F#|------0---------|2-------|0---------0-----|----------0-----|
C#|----------------|--------|------2---------|------2---------|
G#|----------------|2-------|----------------|----------------|
D#|3---3---3---3---|--------|0---0---0---0---|0---0---0---0---|

D#|----------------|--------|----------------|----------------|
A#|8---------8-----|7---8---|5---------5-----|5---------5-----|
F#|------0---------|--------|------0---------|------0---------|
C#|----------------|--------|----------------|----------------|
G#|7---7---7---7---|5-------|3---3---3---3---|3---3---3---3---|
D#|----------------|--------|----------------|----------------|

D#|----------------|--------|----------------|----------------|
A#|3---------3-----|----0---|----------0-----|----------------|
F#|------0---------|2-------|0---------------|0---------0-----|
C#|----------------|--------|------2---------|------2---------|
G#|----------------|2-------|----------------|----------------|
D#|3---3---3---3---|--------|0---0---0---0---|0---0---0---0---|

[Instrumental]
D#|--------------------------------------------------------|
A#|8---------8-----7---8---5---------5-----5---------5-----|
F#|------0-----------------------0---------------0---------|
C#|--------------------------------------------------------|
G#|7---7---7---7---5-------3---3---3---3---3---3---3---3---|
D#|--------------------------------------------------------|

D#|--------------------------------------------------------|
A#|3---------3---------0-------------------0---------------|
F#|------0---------2-------0---------0---------------0-----|
C#|------------------------------2---------------2---------|
G#|----------------2---------------------------------------|
D#|3---3---3---3-----------0---0---0---0---0---0---0---0---|

[Verse]
D#|--------------------------------------------------------|
A#|8---------8-----7---8---5---------5-----5---------5-----|
F#|------0-----------------------0---------------0---------|
C#|--------------------------------------------------------|
G#|7---7---7---7---5-------3---3---3---3---3---3---3---3---|
D#|--------------------------------------------------------|

D#|--------------------------------------------------------|
A#|3---------3---------0-----------------------------------|
F#|------0---------2-------0-------------------------------|
C#|--------------------------------------------------------|
G#|----------------2---------------------------------------|
D#|3---3---3---3-----------0-------------------------------|


************************************

| ~  Vibrato

************************************

            
            
Suggest correction
Creating personal tab
Creating personal tab
You can edit any tab online and save it as your Personal.

You can edit, replace or remove any tab part or add personal notes – all changes will be seen only by you.

Personal tabs can be accessed anytime from any device, even offline.
Learn more »
Give kudos to tab author, rate the tab!
1 2 3 4 5
comments
print report bad tab
3 comments total.
0 reply
connor.amigop 10 May 30, 2017 08:06 PM

Hey that's pretty neat :) was lookin for this one for a while.

Now if only I can find a standard tuning version

0 reply
johandelanou 10 Jun 26, 2017 03:09 PM, edited at 07:10 pm

Yeah standard tuning could be so nice but i'll try this aswell,even if i think i can't do it. thanks you dude

guest
You may want to rate the tab now too:
select rating
Wanna post a correction for this tab? Suggest correction