Oops, an error
Loading. Please wait.

Weighted Bass Tab

version 1
version 1

Whole song

4,958 views 9 this week
3 commentsread comments
1 2 3 4 5
x 11
add to favorites
launch autoscroll
font size
0
reset
guitar tuner
Autoscroll
slow
fast
+/-
esc
set tempo
stop
Help us to improve Ultimate-Guitar.com Take our survey!
×
Difficulty
novice
-------------------------------------------------------------------------------
                Weighted - frnkiero and the cellabration
-------------------------------------------------------------------------------
Tabbed by: Caitlin McHale
E-mail: cmchale182@gmail.com 

This is my first tab, so it may not be perfect, but I think it's pretty accurate. Ratings and reviews are
appreciated, I would like to know how I did!
I think that's about it. Enjoy!

Tuning:Standard (EADG)

Verse
G|---------------------------------------------------------------------------|
D|---------------------------------------------------------------------------|
A|-1(x32)----------1(x16)-1(x32)-----------1(x16)----------------------------|
E|---------4(x16)------------------4(x16)------------------------------------|

Pre-Chorus
G|---------------------------------------------------------------------------|
D|----------11111111---------------------------------------------------------|
A|-33333333-----------1111111111111111-33333333----------1111111111111111----|
E|----------------------------------------------44444444---------------------|

Chorus
G|---------------------------------------------------------------------------|
D|------------------------11111111-------------------------------------------|
A|-1(x16)-1(x16)-33333333----------1111111111111111--------------------------|
E|---------------------------------------------------------------------------|

G|---------------------------------------------------------------------------|
D|---------------------------------------------------------------------------|
A|-1(x16)-1(x16)-33333333----------1111111111111111--------------------------|
E|------------------------44444444-------------------------------------------|

Bridge
G|---------------------------------------------------------------------------|
D|-------------------11111111-----------------------------1111111111111111---|
A|-33333333-------------------11111111--33333333-----------------------------|
E|----------44444444-----------------------------44444444--------------------|

Outro
G|---------------------------------------------------------------------------|
D|---------------------------------------------------------------------------|
A|-33333333----------1111111111111111--3~----------1~~~~---------------------|
E|----------44444444-------------------------4~------------------------------|

Song Order:
Verse
Pre-chorus
Chorus
Verse
Pre-chorus
Chorus
Bridge(x2)
Verse
Chorus(x2)
Outro


| /  slide up
| \  slide down
| h  hammer-on
| p  pull-off
| ~  hold note
| +  harmonic
| x  Mute note
===============================================================================
Suggest correction
comments
print report bad tab
3 comments total.
0 reply
Epiman648 10 Jul 17, 2014 12:26 PM

Awesome! Best version around!

0 reply
Music_freak27 55 Aug 06, 2014 04:44 AM

Hey, this is great! I was playing near enough that but had a few mistakes here and there and I wanted to check, and this helped me greatly. Thank you!

0 reply
rickhamptonbass 10 Sep 20, 2014 12:38 PM

I think its dropped "D" to take the bridge

guest
You may want to rate the tab now too:
select rating
Wanna post a correction for this tab? Suggest correction