Oops, an error
Loading. Please wait.

Guilttripping tab

version 3
version 3

Whole song

145 views 1 this week
no commentswrite comment
1 2 3 4 5
3 more votes to show rating
add to favorites
×
Save as Personal and add changes to this tab that will be seen only by you. Learn more ›
×
You can save this tab as Personal to edit and correct it or add notes. All changes will be seen only by you. Learn more »
launch autoscroll
font size
0
reset
how to read this tab
guitar tuner
edit
Autoscroll
slow
fast
+/-
esc
set tempo
stop
Author
Difficulty
About this tab version
Guitar 1: Frank Iero. Guitar 2: Frank Iero (Overdubbed). Guitar 2 is only used in the intro. Both are distorted. Was this info helpful? Yes No
I didn't translate the bass into lead and rhythm, but this site has a bass tab. Here is the link to that:
https://tabs.ultimate-guitar.com/f/frank_iero/guilttripping_btab.htm

Guitars: Distorted

[Intro]
Guitar 1:
e|---7-7-7-7-7-7-------------------------------------------------------------|
B|--8-8-8-8-8-8-8------------------------------------------------------------|
G|---------------------------------------------------------------------------|
D|---------------------------------------------------------------------------|
A|---------------------------------------------------------------------------|
E|---------------------------------------------------------------------------|

Guitar 1:
e|---7-7-7-7-7-7-7-7-7-|--5-5-5-5-5-5-3-3----------x2------------------------|
B|--8-8-8-8-8-7-7-7-7--|-5-5-5-5-5-4-4-3-3-----------------------------------|
G|---------------------|-----------------------------------------------------|
D|---------------------|-----------------------------------------------------|  
A|---------------------|-----------------------------------------------------|
E|---------------------|-----------------------------------------------------|

 Guitar 2:
e|-------------|-------------------------------------------------------------|
B|---------16--|---13-15-16-15---16-15-13-11--8-6----------------------------|
G|--18b--------|-15---------------------------------------x2-----------------|
D|-------------|-------------------------------------------------------------|
A|-------------|-------------------------------------------------------------|
E|-------------|-------------------------------------------------------------|
    So many stars in the sky...
    Maybe I'm blind...

Guitar 1:
e|-------------|--------------------------------------------------------------|
B|---------16--|---13-15-16-15---16-15-13-11--8-6-----------------------------|
G|--18b--------|-15---------------------------------------x2------------------|
D|-------------|--------------------------------------------------------------|
A|-------------|--------------------------------------------------------------|
E|-------------|--------------------------------------------------------------|
    I went outside today hoping the sun...
    I went outside today hoping to feel...

[Verse]
Guitar 1:
e|---------------------------------------------------------------------------|
B|---------------------------------------------------------------------------|
G|--6---3-2---1/2-----0------------------------------------------------------|
D|---------------------------------------------------------------------------|
A|---------------------------------------------------------------------------|
E|---------------------------------------------------------------------------|

e|---------------------------------------------------------------------------|
B|---------------------------------------------------------------------------|
G|--6---3-2--------------x4--------------------------------------------------|
D|---------4-----------------------------------------------------------------|
A|---------------------------------------------------------------------------|
E|---------------------------------------------------------------------------|
 (Heavy bass here, mostly not guitar.)

    My body's weak I gave up on me. This time I don't think I can get out from
    What I'm underneath, it's hart to believe another day of rain has come and gone.

(No guitar until next chorus, bass only)

[Chorus]
Guitar 1:
e|-------------|--------------------------------------------------------------|
B|---------16--|---13-15-16-15---16-15-13-11--8-6-----------------------------|
G|--18b--------|-15---------------------------------------x2------------------|
D|-------------|--------------------------------------------------------------|
A|-------------|--------------------------------------------------------------|
E|-------------|--------------------------------------------------------------|
    I went outside today hoping the sun would burn my face
    I went outside today hoping to feel something.

[Verse]
Guitar 1:
e|---------------------------------------------------------------------------|
B|---------------------------------------------------------------------------|
G|--6---3-2------------------------------------------------------------------|  x4
D|---------4-----------------------------------------------------------------|
A|---------------------------------------------------------------------------|
E|---------------------------------------------------------------------------|
    Save room for me in memories, I'd love to always be a small part of
    What makes you smile from time to time,
    Just think of me and be glad I'm home.

Guitar 1:
e|---------------------------------------------------------------------------|
B|--7~--------------(Very heavy bass here)-----------------------------------|
G|---------------------------------------------------------------------------|
D|---------------------------------------------------------------------------|
A|---------------------------------------------------------------------------|
E|---------------------------------------------------------------------------|
    Let's close our eyes, we've got time to make each other cry.
    It's best this way, I'm used to being left behind.

[Bridge]
Guitar 1:
e|------------------|-------------------------|--------------------------------|
B|------------------|-------------------------|--------------------------------|
G|------------------|-------------------------|--------------------------------|
D|------------------|-------------------------|--------------------------------|
A|--5-5-5-5-5-5-5-5-|-10-10-10-10-10-10-10-10-|-12-12-12-12-12-12-12-12----x2--|
E|--3-3-3-3-3-3-3-3-|-8- 8--8--8--8--8--8--8--|-10-10-10-10-10-10-10-10--------|
    I remember a time when I felt so unlike me.
    I remember a time when someone could love me.

e|--------------------|-------------------------|------------------------------|
B|--------------------|-------------------------|------------------------------|
G|--------------------|-------------------------|------------------------------|
D|--5-5-5-5-5-5-5-5-5-|-10-10-10-10-10-10-10-10-|-8-8-4-8-4-9-9-8-8-4-8-4-9-9--|
A|--5-5-5-5-5-5-5-5-5-|-10-10-10-10-10-10-10-10-|-8-8-4-8-4-9-9-8-8-4-8-4-9-9--|
E|--3-3-3-3-3-3-3-3-3-|-8- 8--8--8--8--8--8--8--|-6-6-2-6-2-7-7-6-6-2-6-2-7-7--|
    I remember when I still felt alive.

[Chorus]
Guitar 1:
e|-------------|--------------------------------------------------------------|
B|---------16--|---13-15-16-15---16-15-13-11--8-6-----------------------------|
G|--18b--------|-15---------------------------------------x2------------------|
D|-------------|--------------------------------------------------------------|
A|-------------|--------------------------------------------------------------|
E|-------------|--------------------------------------------------------------|
    I went outside today hoping the sun would burn my face
    I went outside today hoping to feel something.

[Outro]
Guitar 1:
e|---------------------------------------------------------------------------|
B|---------------------------------------------------------------------------|
G|------------8/6~--------------8\6--3-6-------------------------------------|
D|--4~---------------4~--------------------4~--------------------------------|
A|---------------------------------------------------------------------------|
E|---------------------------------------------------------------------------|


************************************
| b   Bend
| /   Slide up
| \   Slide down
| ~   Vibrato
************************************

            
            
Suggest correction
Creating personal tab
Creating personal tab
You can edit any tab online and save it as your Personal.

You can edit, replace or remove any tab part or add personal notes – all changes will be seen only by you.

Personal tabs can be accessed anytime from any device, even offline.
Learn more »
Give kudos to tab author, rate the tab!
1 2 3 4 5
comments
print report bad tab
guest
You may want to rate the tab now too:
select rating
Wanna post a correction for this tab? Suggest correction