Oops, an error
Loading. Please wait.

Shes The Prettiest Girl At The Party And She Can Prove It With A Solid Right Hook intro tab

version 2
version 2

Intro

Whole song

Interactive

541 views 6 this week
no commentswrite comment
1 2 3 4 5
2 more votes to show rating
add to favorites
×
Save as Personal and add changes to this tab that will be seen only by you. Learn more ›
×
You can save this tab as Personal to edit and correct it or add notes. All changes will be seen only by you. Learn more »
launch autoscroll
font size
0
reset
how to read this tab
guitar tuner
edit
Autoscroll
slow
fast
+/-
esc
set tempo
stop
Difficulty
intermediate
Tabbed by: cynicaljellyfish

Tuning:regular

this is my first tab, but im pretty sure it works
this is an easier version than what frank actually does in the song, but it captures all the important notes
so enjoy

e|---------------------------------------------------------------------------|
B|-------5--5------5--------------------------8--8-----8---------------------|
G|----5--------5--------------7/9--9----------------9-----9---9---7----------|
D|---------------------------------------------------------------------------|
A|---------------------------------------------------------------------------|
E|---------------------------------------------------------------------------|

e|---------------------------------------------------------------------------|
B|-----5--5------5----------------------8--8-----10h8------------------------|
G|--5--------5------7/9--9--------9--------------------9p10--10--9--7--7--7-7|
D|---------------------------------------------------------------------------|
A|---------------------------------------------------------------------------|
E|---------------------------------------------------------------------------|

e|---------------------------------------------------------------------------|
B|---------------------------------------------------------------------------|
G|--10--10--10/12--10\7--7--7--5---------------------------------------------|
D|---------------------------------------------------------------------------|
A|---------------------------------------------------------------------------|
E|---------------------------------------------------------------------------|


************************************

| /   slide up
| \   slide down
| h   hammer-on
| p   pull-off

************************************

then just repeat this twice and you have the intro, hope you enjoyed and that it works for you

            
            
Suggest correction
Creating personal tab
Creating personal tab
You can edit any tab online and save it as your Personal.

You can edit, replace or remove any tab part or add personal notes – all changes will be seen only by you.

Personal tabs can be accessed anytime from any device, even offline.
Learn more »
Give kudos to tab author, rate the tab!
1 2 3 4 5
comments
print report bad tab
guest
Wanna post a correction for this tab? Suggest correction