Oops, an error
Loading. Please wait.

Shes The Prettiest Girl At The Party And She Can Prove It With A Solid Right Hook tab

version 2
version 2

Whole song

Interactive

508 views 9 this week
2 commentsread comments
1 2 3 4 5
1 last vote to show rating
add to favorites
×
Save as Personal and add changes to this tab that will be seen only by you. Learn more ›
×
You can save this tab as Personal to edit and correct it or add notes. All changes will be seen only by you. Learn more »
launch autoscroll
font size
0
reset
how to read this tab
guitar tuner
edit
Autoscroll
slow
fast
+/-
esc
set tempo
stop
Author
Difficulty
[Intro]

e|--0---0--------3---3-------0---0------3---5p3------------------------------|
B|-1-1-1-1--3/5-5-5-5-5-5-3-1-1-1-1--3/5-5-5---5/6--6---6---5-3---3---3---6--|
G|-------------------------------------------------0-0-0-0-0---0-0-0-0-0-0---|
D|---------------------------------------------------------------------------|
A|---------------------------------------------------------------------------|
E|---------------------------------------------------------------------------|

e|---------------------------------------------------------------------------|
B|----6---8-6-5-3-3h5p3-1-0-1------------------------------------------------|
G|-0-0-0-0-------------------------------------------------------------------|
D|---------------------------------------------------------------------------|
A|---------------------------------------------------------------------------|
E|---------------------------------------------------------------------------|

e|--0---0--------3---3-------0---0------3---5p3------------------------------|
B|-1-1-1-1--3/5-5-5-5-5-5-3-1-1-1-1--3/5-5-5---5/6--6---6---5-3---3---3---6--|
G|-------------------------------------------------0-0-0-0-0---0-0-0-0-0-0---|
D|---------------------------------------------------------------------------|
A|---------------------------------------------------------------------------|
E|---------------------------------------------------------------------------|

e|---------------------------------------------------------------------------|
B|----6---8-6-5-3-3h5p3-1-0-1------------------------------------------------|
G|-0-0-0-0-------------------------------------------------------------------|
D|---------------------------------------------------------------------------|
A|---------------------------------------------------------------------------|
E|---------------------------------------------------------------------------|


[Verse]

         C                       C       C
I got my bags all packed and I'm ready to go
    Am                       Am/B       Am
I'm standing outside of your figurative door
    Dm/G                       Fdim
I'm ready for the flight or to fall off a cliff
            F                           G
But if it's alright with you I'd rather not miss out on us

C                        C           C
Cause your face is all I need to stay sane
Am                         Am/B      Am
I've spent my life getting in my own way
           Dm/G                         Fdim
So I could use something good, I really need this to work out
              F                                G
Of course the way things have gone it might be smarter to just cash out

F                  G 
But you're on my mind
        C               C/B         Am          G
And the things that you say hurt me most of the time
F                 G
But I'm sinking fast so it's alright


[Interlude]

e|--0---0--------3---3-------0---0--------3---3------------------------------|
B|-1-1-1-1--3/5-5-5-5-5-5-3-1-1-1-1--3/5-5-5-5-5-3-1-------------------------|
G|---------------------------------------------------------------------------|
D|---------------------------------------------------------------------------|
A|---------------------------------------------------------------------------|
E|---------------------------------------------------------------------------|


[Verse]

             C                        C       C
I've tied my stomach in knots and I'm ready to know
     Am                          Am/B           Am
I'll put it on the line if you'd just give it a go
        Dm/G                       Fdim
Cause I want to be the only one to hold you so close and so tight
F                       G
And if it's cool with you I'd really love to spend the night

C                   C/B      Am
You say you never wanna be saved
E
Well that's okay cause I wouldn't know how
     Am
Just know that the best that I'll ever be
   F                        G
Is whatever you make me and wherever you are


[Chorus]

F                  G 
But you're on my mind
        C               C/B         Am          G
And the things that you say hurt me most of the time
F                 G
But I'm on your side,
        C            C/B     Am            G
Cause I know I'm not easy to deal with sometimes
F                 G
But I'm sinking fast so it's alright


[Bridge]

C      C/B        F
All we wanted was what we were
    F                G         Am
And what we were was young and naïve
           E             F
I found my place in this world
             G  
It's in your wake, in your wake, in your wake
F                  G 
But you're on my mind
        C               C/B         Am          G
And the things that you say hurt me most of the time
F                 G
But I'm on your side,
        C            C/B     Am            G
Cause I know I'm not easy to deal with sometimes
F               G
But once in a while 
  C              C/B        Am       G
I wish you would tell me if you even care
F                   G     F           G
Cause I'm sinking fast, I'm sinking fast
  F
I need you I need you I need you I need you I need you
              G
I need you to know that I'm alright.


[Outro]

e|--0---0--------3---3-------0---0------3---5p3------------------------------|
B|-1-1-1-1--3/5-5-5-5-5-5-3-1-1-1-1--3/5-5-5---5/6--6---6---5-3---3---3---6--|
G|-------------------------------------------------0-0-0-0-0---0-0-0-0-0-0---|
D|---------------------------------------------------------------------------|
A|---------------------------------------------------------------------------|
E|---------------------------------------------------------------------------|

e|---------------------------------------------------------------------------|
B|----6---8-6-5-3-3h5p3-1-0-1------------------------------------------------|
G|-0-0-0-0-------------------------------------------------------------------|
D|---------------------------------------------------------------------------|
A|---------------------------------------------------------------------------|
E|---------------------------------------------------------------------------|

e|--0---0--------3---3-------0---0------3---5p3------------------------------|
B|-1-1-1-1--3/5-5-5-5-5-5-3-1-1-1-1--3/5-5-5---5/6--6---6---5-3---3---3---6--|
G|-------------------------------------------------0-0-0-0-0---0-0-0-0-0-0---|
D|---------------------------------------------------------------------------|
A|---------------------------------------------------------------------------|
E|---------------------------------------------------------------------------|

e|---------------------------------------------------------------------------|
B|----6---8-6-5-3-3h5p3-1-0-1------------------------------------------------|
G|-0-0-0-0-------------------------------------------------------------------|
D|---------------------------------------------------------------------------|
A|---------------------------------------------------------------------------|
E|---------------------------------------------------------------------------|



************************************
| h   Hammer-on
| p   Pull-off
| /   Slide up
| \   Slide down
************************************

            
            
Suggest correction
Creating personal tab
Creating personal tab
You can edit any tab online and save it as your Personal.

You can edit, replace or remove any tab part or add personal notes – all changes will be seen only by you.

Personal tabs can be accessed anytime from any device, even offline.
Learn more »
Give kudos to tab author, rate the tab!
1 2 3 4 5
comments
print report bad tab
2 comments total.
0 reply
chumisfum6789 647 Jan 07, 2017 10:56 PM

what's the strum pattern

guest
You may want to rate the tab now too:
select rating
Wanna post a correction for this tab? Suggest correction