Oops, an error
Loading. Please wait.

Shes The Prettiest Girl At The Party And She Can Prove It With A Solid Right Hook ukulele

version 2
version 2

Whole song

  • The instrumental is included along with the chords.
  • This is basically just the riff part for the ukule... Show more

Interactive

262 views 6 this week
no commentswrite comment
1 2 3 4 5
x 3
add to favorites
×
Save as Personal and add changes to this tab that will be seen only by you. Learn more ›
×
You can save this tab as Personal to edit and correct it or add notes. All changes will be seen only by you. Learn more »
launch autoscroll
font size
0
reset
transpose
0
reset
display chords
guitar tuner
edit
Autoscroll
slow
fast
+/-
esc
set tempo
stop
Author
Difficulty
About this tab version
The instrumental is included along with the chords. Was this info helpful? Yes No
Strumming
There is no strumming pattern for this song yet. and get +5 IQ
I'm very new to ukelele, so I'm not quite sure that these are right, but it sounds good to me.
If there corrections, please let me know! I would love to improve this!

[Intro]
A|----------------------------------------------------------0----------------|
E|---0-----0---------3-----3----------0-----0---------3-------3--------------|
C|-0---0-0---0-2-4-4---4-4---4-4-2--0---0-0---0-2-4-4---4-4------4-4-2-------|
G|---------------------------------------------------------------------------|

A|---------------------------------------------------------------------------|
E|----------------------------------------3----------------------------------|
C|-5----5-5-5-4-2-----2-2-2-4-5-----5-5-5---4-2-2-4-2-0---0------------------|
G|---0-0----------0-0-----------0-0---------------------4--------------------|


[Verse]
          C                      Em       C
i got my bags all packed and i’m ready to go.
Am
i’m standing outside of your figurative door.
           Dm
and i’m ready for the flight or to fall of a cliff,
             F                           G
but if it’s alright with you i’d rather not miss out on us.
C
cause your face is all i need to stay sane.
Am
i’ve spent my life getting in my own way.
          Dm
so i could use something good, i really need this to work out.
               F                                      G
of course the way things have been going it might be smarter to just cash out.


[Chorus]
F                G
but you’re on my mind,
           C                        Am            G
and the things that you say hurt me most of the time.
F               G                                      C
but i’m sinking fast so it’s alright.


[Interlude]
A|---------------------------------------------------------------------------|
E|---0-----0---------3-----3----------0-----0---------3----------------------|
C|-0---0-0---0-2-4-4---4-4---4-4-2--0---0-0---0-2-4-4---4-4-2-0--------------|
G|---------------------------------------------------------------------------|


[Verse]
C
i’ve tied my stomach in knots and I’m ready to know.
Am
i’ll put it on the line if you’d just give it a go.
         Dm
cause i wanna be the only one to hold you so close and so tight.
F                      G
and if it’s cool with you, i’d really love to spend the night.
C                           Em
you said you never wanna be saved,
E
well, that’s ok because i really wouldn’t know how.
      Am                                      F                         G                      
just know that the best that i’ll ever be is whatever you make me and wherever you are…


[Chorus]
F            G
you’re on my mind,
         C                          Am           G
and the things that you say hurt me most of the time.
F               G
but i’m on your side,
              C              Am          G
cause i know i’m not easy to deal with sometimes.
F               G
but i’m sinking fast, so it’s alright.


[Bridge]
C                 F
all we wanted was what we were,
      C               G         Am
and what we were was young and naive.
            E             F                   G
i found my place in this world, it’s in your wake.


[Chorus]
F            G
you’re on my mind,
         C                          Am           G
and the things that you say hurt me most of the time.
F               G
but i’m on your side,
          C                  Am          G
cause i know i’m not easy to deal with sometimes.
F             G
but once in a while,
   C                        Am       G
i wish you would tell me if you even care.
F                    G
because i’m sinking fast,
F           G
i'm sinking fast,
    F                        G               C
and i need you…i need you to know that i’m alright.


[Outro]
A|----------------------------------------------------------0----------------|
E|---0-----0---------3-----3----------0-----0---------3-------3--------------|
C|-0---0-0---0-2-4-4---4-4---4-4-2--0---0-0---0-2-4-4---4-4------4-4-2-------|
G|---------------------------------------------------------------------------|

A|---------------------------------------------------------------------------|
E|----------------------------------------3----------------------------------|
C|-5----5-5-5-4-2-----2-2-2-4-5-----5-5-5---4-2-2-4-2-0---0------------------|
G|---0-0----------0-0-----------0-0---------------------4--------------------|

            
            
Suggest correction
Creating personal tab
Creating personal tab
You can edit any tab online and save it as your Personal.

You can edit, replace or remove any tab part or add personal notes – all changes will be seen only by you.

Personal tabs can be accessed anytime from any device, even offline.
Learn more »
Give kudos to tab author, rate the tab!
1 2 3 4 5
comments
print report bad tab
guest
You may want to rate the tab now too:
select rating
Wanna post a correction for this tab? Suggest correction