Oops, an error
Loading. Please wait.

Tragician Bass

version 1
version 1

Whole song

  • I saw there was no tab for this song, but I watche... Show more
1,966 views 12 this week
no commentswrite comment
1 2 3 4 5
x 3
add to favorites
×
Save as Personal and add changes to this tab that will be seen only by you. Learn more ›
×
You can save this tab as Personal to edit and correct it or add notes. All changes will be seen only by you. Learn more »
save as personal
new!
launch autoscroll
font size
0
reset
guitar tuner
Autoscroll
slow
fast
+/-
esc
set tempo
stop
Difficulty
novice
-------------------------------------------------------------------------------
                Tragician - frnkiero andthe cellabration
-------------------------------------------------------------------------------
Tabbed by: Caitlin McHale
E-mail: cmchale182@gmail.com

Tuning:Standard EADG
This song has a pretty fast pace but is otherwise fairly simple.Each set of notes can be played half as many 
times [ex 5(x16) could be played more slowly at 5(x8)]for a bass line that doesn't EXACTLY match the one in 
the song but is still accurate. Rates are appreciated. Enjoy!
 
Intro
G|---------------------------------------------------------------------------|
D|---------------------------------------------------------------------------|
A|--- do not play -----------------------------------------------------------|
E|---------------------------------------------------------------------------|

Verse
G|---------------------------------------------------------------------------|
D|---------------------------------------------------------------------------|
A|--5(x16)-5(x16)------------------------------------------------------------|
E|----------------3(x16)-5(x16)----------------------------------------------|

Pre-Chorus
G|---------------------------------------------------------------------------|
D|---------------------------------------------------------------------------|
A|---------------------------------------------------------------------------|
E|--3(x16)-5(x16)------------------------------------------------------------|

Chorus
G|---------------------------------------------------------------------------|
D|---------------------------------------------------------------------------|
A|--5(x16)---------------2(x8)-4(x8)-----------------------------------------|
E|---------5(x16)-3(x16)-----------------------------------------------------|

Bridge pt1
G|---------------------------------------------------------------------------|
D|---------------------------------------------------------------------------|
A|--7(x16)--------5(x8)-4(x8)-2(x16)-----------------------------------------|
E|---------5(x16)------------------------------------------------------------|

Bridge pt2
G|---------------------------------------------------------------------------|
D|---------------------------------------------------------------------------|
A|---------------------------------------------------------------------------|
E|--3(x16)-5(x16)------------------------------------------------------------|

Outro
G|---------------------------------------------------------------------------|
D|---------------------------------------------------------------------------|
A|--5(x16)---------------2(x8)-4(x8)-5(x16)---------------2(x8)-4(x8)--------|
E|---------5(x16)-3(x16)--------------------5(x16)-3(x16)--------------------|
(cont)
G|---------------------------------------------------------------------------|
D|---------------------------------------------------------------------------|
A|------------------------5~~~~----------------------------------------------|
E|3(x8)-5(x8)-3(x8)-5(x8)----------------------------------------------------|

Song Order:
Intro
Verse(x2)
Pre-Chorus(x2)
Chorus(x2)
Verse(2x)
Pre-Chorus(x2)
Chorus(x2)
Bridgept1(x2)
Bridgept2
Chorus(x2)
Outro

| /  slide up
| \  slide down
| h  hammer-on
| p  pull-off
| ~  hold note
| +  harmonic
| x  Mute note
===============================================================================
Suggest correction
Give kudos to tab author, rate the tab!
1 2 3 4 5
comments
print report bad tab
guest
Wanna post a correction for this tab? Suggest correction