Oops, an error
Loading. Please wait.

Tragician tab

version 1
version 1

Whole song

1,531 views 18 this week
2 commentsread comments
1 2 3 4 5
x 4
add to favorites
×
Save as Personal and add changes to this tab that will be seen only by you. Learn more ›
×
You can save this tab as Personal to edit and correct it or add notes. All changes will be seen only by you. Learn more »
launch autoscroll
font size
0
reset
how to read this tab
guitar tuner
edit
Autoscroll
slow
fast
+/-
esc
set tempo
stop
Author
Difficulty
Tragician – frnkiero andthe celebration

its my first tab, so there might be some mistakes. but i think its almost "perfect" :)

Intro
2nd guitar
e|--------------------------------------------|
B|-3---3-3-5-7-8---8-8-7-5/7-3---3-5-3-2-3----|
G|--------------------------------------------|
D|--------------------------------------------|
A|--------------------------------------------|
E|--------------------------------------------|
verse
1st guitar ( do small pause after each piwerchord for guitar2 is playing)
E--------------------------------------- x2
B---------------------------------------
G--7------------------------------------
D--7--(x16)--9------------7-------------
A—-5---------9--(x16)-----7--(x16)-----
E------------7------------5-------------


2ndguitar  (plays same as 1first guitar. Idk how to write it down but you will see what i mean when 
you hear the song)
e----------------------------------------------x2
B---------------------------------------------
G---------------------------------------------
D-----------------9---------7----------------
A---------------9----------7-----------------
E-------------7----------5------------------

pre-chorus
both guitars
E-------------------------------------------------
B-------------------------------------------------
G-------------------------------------------------
D---5------------7-----------5-----------7--------
A—--5—(x16)------7--(x16)----5--(x16)----7--(16)--
E---3------------5-----------3-----------5--------

Chorus
1st guitar
E------------------------------------------------------------------x2
B------------------------------------------------------------------
G—--7--------------------------------------------------------------
D---7--(x16)----7-----------5------------9-----------7-------------
A---5-----------7--(x16)----5--(x16)-----9--(x8)-----7--(x8)-------
E---------------5-----------3------------7-----------5-------------

2nd guitar
E-------------------------------------------19----------|-----------------------21--------
B---15-----------17------------20-----------------------|-22_----second repeat------(x8)--
G------(x16)--------(x16)--------(x16)------16-(x8)-----|-----(x8)--------------18--------
D---12-----------14------------17-----------------------|-19------------------------------
A-------------------------------------------------------|---------------------------------
E-------------------------------------------------------|---------------------------------

Bridge
1st gituar
E--------------------------------------------------------------x2       ----------------------|
B------------------------------------------------------------           ----------------------|
G------------------2----------7----------6-------------------           -------------6--------|
D----2-------------2--(x16)---7-(x8)-----6-(x8)----9---------           --2----------6-(x16)--|
A----2--(x16)------0----------5----------4---------9-(x16)---           --2-(x16)----4--------|
E----0---------------------------------------------7---------           --0-------------------|

2nd guitar
second repeat

e------------------------------
B--------5-5-7-5---------------
G—7-6-7---7------7-------------
D------------------------------
A------------------------------
E------------------------------

------------------
Chorus---------
------------------

Outro
both guitars, after 2x guitar2 plays the „many times repeat“ and guitar1 the part of 1st guitar
E------------------------------------------------------------------------------------------x2
B--------------------------------------------------------------------------------------------
G-—--7-------9--------11---------------------------------------------------------------------
D----7-(x8)--9-(x4)---11-(x4)----9-------11---------12--------7---------5----------7---------
A----5-------7--------9----------9-(x8)--11-(x4)----12-(x4)---7-(x16)---5-(x8)-----7-(x8)----
E--------------------------------7--------9---------10--------5---------3----------5---------

2nd guitar
e----------------------------------- repeat many times (till end)
B—-15---------17------------19------
G-----(x8)-------(x4)----------(x4)
D--12---------14------------16------
A-----------------------------------
E-----------------------------------

1st guitar
e--------------------------------------------x2        end on ------------
B----------------------------------------------               ------------
G----------------------------------------------               ------------
D----55555555------77777777--------------------               ----5-------
A----55555555------77777777--------------------               –---5-------
E----33333333------55555555--------------------               ----3-------



2nd guitar
E------------------------------------
B------------------------------------
G------------------------------------
D----5~-----2~------4~---------0~----
A------------------------------------
E------------------------------------

            
            
Suggest correction
Creating personal tab
Creating personal tab
You can edit any tab online and save it as your Personal.

You can edit, replace or remove any tab part or add personal notes – all changes will be seen only by you.

Personal tabs can be accessed anytime from any device, even offline.
Learn more »
comments
print report bad tab
2 comments total.
0 reply
trxgicxan 179 Feb 14, 2016 03:03 PM

Hey for the second guitar on the chorus it is not on the 24th fret bc this was recorded on an epiphone phantomatic which only has 22 frets :)

guest
You may want to rate the tab now too:
select rating
Wanna post a correction for this tab? Suggest correction