Oops, an error
Loading. Please wait.

Where Do We Belong Anywhere But Here Acoustic tab

256 views 3 this week
no commentswrite comment
1 2 3 4 5
x 3
add to favorites
×
Save as Personal and add changes to this tab that will be seen only by you. Learn more ›
×
You can save this tab as Personal to edit and correct it or add notes. All changes will be seen only by you. Learn more »
launch autoscroll
font size
0
reset
how to read this tab
guitar tuner
edit
Autoscroll
slow
fast
+/-
esc
set tempo
stop
About this tab version
Live Acoustic version - https://www.youtube.com/watch?v=nYWQ4JATlt4 The tuning is half step down and the song is in 6:8 time. The strumming pattern for a bar is D DUDU D DUDU. The tabs probably aren't entirely correct but close. Was this info helpful? Yes No
In case the info isn't showing on mobile etc, the tabs
are for this performance https://www.youtube.com/watch?v=nYWQ4JATlt4
The song is in 6/8 time and strumming for one bar is D DUDU D DUDU. Tune half step down

[Intro]

e|-x---x-x-x-x--x---x-x-x-x-|-x---x-x-x-x--x---x-x-0-0-|-x---x-x-x-x--x---x-x-x-x-|-x---x-x-x-x--x---0-0-0-0-|
B|-x---x-x-x-x--x---x-x-x-x-|-x---x-x-x-x--x---x-x-0-0-|-x---x-x-x-x--x---x-x-x-x-|-x---x-x-x-x--x---0-0-0-0-|
G|-x---x-x-x-x--x---x-x-x-x-|-x---x-x-x-x--x---x-x-0-0-|-x---x-x-x-x--x---x-x-x-x-|-x---x-x-x-x--x---0-0-0-0-|
D|-x---x-x-x-x--x---x-x-x-x-|-x---x-x-x-x--x---x-x-0-0-|-x---x-x-x-x--x---x-x-x-x-|-x---x-x-x-x--x---0-0-0-0-|
A|-x---x-x-x-x--x---x-x-x-x-|-x---x-x-x-x--x---x-x-0-0-|-x---x-x-x-x--x---x-x-x-x-|-x---x-x-x-x--x---0-0-0-0-|
E|-x---x-x-x-x--x---x-x-x-x-|-x---x-x-x-x--x---x-x-0-0-|-x---x-x-x-x--x---x-x-x-x-|-x---x-x-x-x--x---0-0-0-0-|


[Chorus]

e|--------------------------|--------------------------|
B|--------------------------|--------------------------|
G|--------------8---8-8-8-8-|-9---9-9-9-9--9---9-9-9-9-|
D|-9---9-9-9-9--9---9-9-9-9-|-9---9-9-9-9--9---9-9-9-9-|(x3)
A|-9---9-9-9-9--9---9-9-9-9-|-7---7-7-7-7--7---7-7-7-7-|
E|-7---7-7-7-7--7---7-7-7-7-|--------------------------|


e|--------------------------|--------------------------|------------------------------|
B|--------------------------|--------------------------|------------------------------|
G|-7---7-7-7-7--7---7-7-7-7-|-6---6-6-6-6--6---6-6-6-6-|-7---7-7-7-7--11--11-11-11-11-|
D|--------------------------|--------------------------|--------------11--11-11-11-11-|
A|-5---5-5-5-5--5---5-5-5-5-|-4---4-4-4-4--4---4-4-4-4-|-5---5-5-5-5--9---9--9--9--9--|
E|--------------------------|--------------------------|------------------------------|

e|--------------------------|
B|--------------------------|
G|-6---6-6-6-6--6---6-6-6-6-|
D|--------------------------|
A|-4---4-4-4-4--4---4-4-4-4-|
E|--------------------------|


[Pre-verse]

e|--------------------------|--------------------------|--------------------------|--------------------------|
B|--------------------------|--------------------------|--------------------------|--------------------------|
G|-4---4-4-4-4--4---4-4-4-4-|-4---4-4-4-4--------------|-4---4-4-4-4--4---4-4-4-4-|-4---4-4-4-4--4---4-4-4-4-|
D|--------------------------|--------------------------|--------------------------|--------------------------|
A|-2---2-2-2-2--2---2-2-2-2-|-2---2-2-2-2--2---4---2---|-2---2-2-2-2--2---2-2-2-2-|-2---2-2-2-2--2---2-2-2-2-|
E|--------------------------|------------------0-------|--------------------------|--------------------------|


[Verse]

e|--------------------------|--------------------------|-0---0-0-0-0--0---0-0-0-0-|-0---0-0-0-0--0---0-0-0-0-|
B|--------------------------|--------------------------|-0---0-0-0-0--0---0-0-0-0-|-0---0-0-0-0--0---0-0-0-0-|
G|-4---4-4-4-4--4---4-4-4-4-|-4---4-4-4-4--4---4-4-4-4-|-x---x-x-x-x--x---x-x-x-x-|-x---x-x-x-x--x---x-x-x-x-|
D|--------------------------|--------------------------|-2---2-2-2-2--2---2-2-2-2-|-2---2-2-2-2--2---2-2-2-2-|
A|-2---2-2-2-2--2---2-2-2-2-|-2---2-2-2-2--2---2-2-2-2-|-2---2-2-2-2--2---2-2-2-2-|-2---2-2-2-2--2---2-2-2-2-|
E|--------------------------|--------------------------|-0---0-0-0-0--0---0-0-0-0-|-0---0-0-0-0--0---0-0-0-0-|
  (x2)

e|--------------------------|--------------------------|------------------------------|
B|--------------------------|--------------------------|------------------------------|
G|-7---7-7-7-7--7---7-7-7-7-|-6---6-6-6-6--6---6-6-6-6-|-7---7-7-7-7--11--11-11-11-11-|
D|--------------------------|--------------------------|--------------11--11-11-11-11-|
A|-5---5-5-5-5--5---5-5-5-5-|-4---4-4-4-4--4---4-4-4-4-|-5---5-5-5-5--9---9--9--9--9--|
E|--------------------------|--------------------------|------------------------------|

e|--------------------------|
B|--------------------------|
G|-6---6-6-6-6--6---6-6-6-6-|
D|--------------------------|
A|-4---4-4-4-4--4---4-4-4-4-|
E|--------------------------|


[Chorus]

[Pre-Verse]

e|--------------------------|--------------------------|--------------------------|--------------------------|
B|--------------------------|--------------------------|--------------------------|--------------------------|
G|-4---4-4-4-4--4---4-4-4-4-|-4---4-4-4-4--------------|-4---4-4-4-4--4---4-4-4-4-|-----4--------------------|
D|--------------------------|--------------------------|--------------------------|--------------------------|
A|-2---2-2-2-2--2---2-2-2-2-|-2---2-2-2-2--2---4---2---|-2---2-2-2-2--2---2-2-2-2-|-----2--------------------|
E|--------------------------|------------------0-------|--------------------------|-3-------3----2~----------|


[Verse]

[Bridge]

e|--------------------------|--------------------------|
B|--------------------------|--------------------------|
G|-4---4-4-4-4--7---7-7-7-7-|--------------------------|
D|--------------------------|-5---5-5-5-5--4---4-4-4-4-|(x4)
A|-2---2-2-2-2--5---5-5-5-5-|-5---5-5-5-5--5---5-5-5-5-|
E|--------------------------|-3---3-3-3-3--3---3-3-3-3-|
                            (^not sure about this bar, but I think it's close)

e|-0---0-0-0-0--0---0-0-0-0-|-3---3-3-3-3--3---3-3-3-3-|-0---0-0-0-0--0---0-0-0-0-|-3---3-3-3-3--3---3-3-3-3-|
B|-0---0-0-0-0--0---0-0-0-0-|-3---3-3-3-3--3---3-3-3-3-|-0---0-0-0-0--0---0-0-0-0-|-3---3-3-3-3--3---3-3-3-3-|
G|-x---x-x-x-x--x---x-x-x-x-|-0---0-0-0-0--0---0-0-0-0-|-x---x-x-x-x--x---x-x-x-x-|-0---0-0-0-0--0---0-0-0-0-|
D|-2---2-2-2-2--2---2-2-2-2-|-0---0-0-0-0--0---0-0-0-0-|-2---2-2-2-2--2---2-2-2-2-|-0---0-0-0-0--0---0-0-0-0-|
A|-2---2-2-2-2--2---2-2-2-2-|-2---2-2-2-2--2---2-2-2-2-|-2---2-2-2-2--2---2-2-2-2-|-2---2-2-2-2--0---0-0-0-0-|
E|-0---0-0-0-0--0---0-0-0-0-|-3---3-3-3-3--3---3-3-3-3-|-0---0-0-0-0--0---0-0-0-0-|-3---3-3-3-3--2---2-2-2-2-|

e|--------------------------|--------------------------|
B|--------------------------|--------------------------|
G|-4---4-4-4-4--7---7-7-7-7-|--------------------------|
D|--------------------------|-5---5-5-5-5--4---4-4-4-4-|(x2)
A|-2---2-2-2-2--5---5-5-5-5-|-5---5-5-5-5--5---5-5-5-5-|
E|--------------------------|-3---3-3-3-3--3---3-3-3-3-|

e|--------------------------|--------------------------|
B|--------------------------|--------------------------|
G|-4---4-4-4-4--7---7-7-7-7-|-9---9-9-9-9--9---9-9-9-9-|
D|--------------------------|-9---9-9-9-9--9---9-9-9-9-|
A|-2---2-2-2-2--5---5-5-5-5-|-7---7-7-7-7--7---7-7-7-7-|
E|--------------------------|--------------------------|

e|--------------------------|--------------------------|
B|--------------------------|--------------------------|
G|-4---4-4-4-4--7---7-7-7-7-|--------------------------|
D|--------------------------|-5---5-5-5-5--4---4-4-4-4-|
A|-2---2-2-2-2--5---5-5-5-5-|-5---5-5-5-5--5---5-5-5-5-|
E|--------------------------|-3---3-3-3-3--3---3-3-3-3-|

e|-0---0-0-0-0--0---0-0-0-0-|-3---3-3-3-3--3---3-3-3-3-|
B|-0---0-0-0-0--0---0-0-0-0-|-3---3-3-3-3--3---3-3-3-3-|
G|-x---x-x-x-x--x---x-x-x-x-|-0---0-0-0-0--0---0-0-0-0-|
D|-2---2-2-2-2--2---2-2-2-2-|-0---0-0-0-0--0---0-0-0-0-|
A|-2---2-2-2-2--2---2-2-2-2-|-2---2-2-2-2--2---2-2-2-2-|
E|-0---0-0-0-0--0---0-0-0-0-|-3---3-3-3-3--3---3-3-3-3-|

e|-0---0-0-0-0--0---0-0-0-0-|-----------------------------------|
B|-0---0-0-0-0--0---0-0-0-0-|-----------------------------------|
G|-x---x-x-x-x--x---x-x-x-x-|-----------------------------------|
D|-2---2-2-2-2--2---2-2-2-2-|-12---12-12-12-12--11--11-11-11-11-|
A|-2---2-2-2-2--2---2-2-2-2-|-12---12-12-12-12--11--11-11-11-11-|
E|-0---0-0-0-0--0---0-0-0-0-|-10---10-10-10-10--9---9--9--9--9--|


[Chorus]

[Outro]

e|--------------------------|--------------------------|--------------------------|
B|--------------------------|--------------------------|--------------------------|
G|-7------------7-----------|-6------------------------|-7------------11----------|
D|--------------------------|--------------------------|--------------11----------|
A|-5------------5-----------|-4------------------------|-5------------9-----------|
E|--------------------------|--------------------------|--------------------------|

e|--------------------------|--------------------------|
B|--------------------------|--------------------------|
G|-6------------------------|-4~-----------------------|
D|--------------------------|--------------------------|
A|-4------------------------|-2~-----------------------|
E|--------------------------|--------------------------|

************************************

| x   Dead note
| ~   Vibrato

************************************
Suggest correction
Creating personal tab
Creating personal tab
You can edit any tab online and save it as your Personal.

You can edit, replace or remove any tab part or add personal notes – all changes will be seen only by you.

Personal tabs can be accessed anytime from any device, even offline.
Learn more »
Give kudos to tab author, rate the tab!
1 2 3 4 5
comments
print report bad tab
guest
You may want to rate the tab now too:
select rating
Wanna post a correction for this tab? Suggest correction