Oops, an error
Loading. Please wait.

You Are My Sunshine Tab

85 views 3 this week
no commentswrite comment
1 2 3 4 5
3 more votes to show rating
add to favorites
launch autoscroll
font size
0
reset
how to read this tab
guitar tuner
Autoscroll
slow
fast
+/-
esc
set tempo
stop
Help us to improve Ultimate-Guitar.com Take our survey!
×
Author
Difficulty
About this tab version
This version done by F.A.T.C. is easier than Johnny Cash's version, in m,y opinion. Was this info helpful? Yes No
Frnkiero And The Cellabration did a nice cover of You Are My Sunshine so I tabbed it.
Here's the vid I got it from: https://youtu.be/lyzEnCWHGCM


[Intro]

Guitar 1:
e|---------------------------------------------------------------------------|
B|-----1-1-2-1-----5-8-5-3-5-3-2-0-2-3-2-----------1-1-2-1-------------------|
G|---1--------1--------------------------3-5-3-0-1----------1--5-3-0-1-------|
D|-1-------------1-----------------------------------------------------------|
A|---------------------------------------------------------------------------|
E|---------------------------------------------------------------------------|


[Verse 1]

Guitar 1:
e|---------------------------------------------------------------------------|
B|---------------------------------------------------------------------------|
G|--------5-----------------------------------------6--------------5---------|
D|---------------------------------------------------------------------------|
A|---------------------------------------------------------------------------|
E|---------------------------------------------------------------------------|
The other night dear as I lay sleeping, I dreamed I held you in my arms.
e|---------------------------------------------------------------------------|
B|---------------------------------------------------------------------------|
G|---------6------------5----------------5---------3----------2--------------|
D|---------------------------------------------------------------------------|
A|---------------------------------------------------------------------------|
E|---------------------------------------------------------------------------|
But when I woke dear, I was mistaken. So I hang my head and I cried


[Chorus]

Guitar 1:
e|---------------------------------------------------------------------------|
B|---------------------------------------------------------------------------|
G|---------5---------------------------------------6-------------------5-----|
D|---------------------------------------------------------------------------|
A|---------------------------------------------------------------------------|
E|---------------------------------------------------------------------------|
You are my sunshine, my only sunshine, you make me happy when skies are gray.
e|---------------------------------------------------------------------------|
B|---------------------------------------------------------------------------|
G|-----------6------------------5--------------------------5------3--------1-|
D|---------------------------------------------------------------------------|
A|---------------------------------------------------------------------------|
E|---------------------------------------------------------------------------|
You'll never know dear how much I love you, please don't take my sunshine away.


[Bridge]

Guitar 2:
e|---------------------------------------------------------------------------|
B|---------------------------------------------------------------------------|
G|--5-5-5-5---------6-6-6-6-5-5-5-5-6-6-6-6-5-5-5-5-5-3----------------------|
D|--5-5-5-5-6-6-6-6-6-6-6-6-5-5-5-5-6-6-6-6-5-5-5-5-5-3-6--------------------|
A|--3-3-3-3-6-6-6-6-4-4-4-4-3-3-3-3-4-4-4-4-3-3-3-3-3-1-6--------------------|
E|----------4-4-4-4-------------------------------------4--------------------|


Guitar 1:
e|---------------------------------------------------------------------------|
B|-----1-1-2-1---------1-1-2-4-2-1-------1-1-2-1---1-5-8-5-3-5-3-2-0---------|
G|---1---------1-1---1-------------1---1---------1---------------------------|
D|-1---------------1-----------------1---------------------------------------|
A|---------------------------------------------------------------------------|
E|---------------------------------------------------------------------------|


[Verse 2]

e|---------------------------------------------------------------------------|
B|---------------------------------------------------------------------------|
G|-------5-------------------------------------6------------------5----------|
D|---------------------------------------------------------------------------|
A|---------------------------------------------------------------------------|
E|---------------------------------------------------------------------------|
I always loved you and made you happy, and you promised to do the same
e|---------------------------------------------------------------------------|
B|---------------------------------------------------------------------------|
G|-------------6---------------5---------------5---------3---5---------------|
D|---------------------------------------------------------------------------|
A|---------------------------------------------------------------------------|
E|---------------------------------------------------------------------------|
But now you've left me to love another, you'll regret it all someday

e|---------------------------------------------------------------------------|
B|---------------------------------------------------------------------------|
G|-------------------------------------------------------6---------------5---|
D|---------------------------------------------------------------------------|
A|---------------------------------------------------------------------------|
E|---------------------------------------------------------------------------|
You told me once dear, you really loved me. That nothing ever could come between us.

e|---------------------------------------------------------------------------|
B|---------------------------------------------------------------------------|
G|-------------6---------------5-----------------5---------3---------1-------|
D|---------------------------------------------------------------------------|
A|---------------------------------------------------------------------------|
E|---------------------------------------------------------------------------|
Suggest correction
Give kudos to tab author, rate the tab!
1 2 3 4 5
comments
print report bad tab
guest
You may want to rate the tab now too:
select rating
Wanna post a correction for this tab? Suggest correction