Oops, an error
Loading. Please wait.

They Wanted Darkness Bass Tab

106 views 6 this week
no commentswrite comment
1 2 3 4 5
3 more votes to show rating
add to favorites
launch autoscroll
font size
0
reset
guitar tuner
Autoscroll
slow
fast
+/-
esc
set tempo
stop
Help us to improve Ultimate-Guitar.com Take our survey!
×
Author
Difficulty
Tuning
intermediate
D A D G B E
‘They Wanted Darkness...’ bass tabs
Drop D tuning      


[Intro]
G|---------------------------------|
D|---------------------------------|
A|-------3-3------------3-3--------|
E|---5-5-----3-3----5-5----3-3-----|x1

G|-----------------------------------------------------------------|
D|-----------------------------------------------------------------| 
A|-------3-3-3-2-2-2-5-5-5-------3-3-3-2-2-2-----------------------| 
E|--5-5-5------------------5-5-5------------3-3-3------------------|x3

G|-----------------------------------------------------------------|
D|-----------------------------------------------------------------|
A|-2-2-2-2-2-2-2-2-----------------2-2-2-2-2-2-2-2-----------------|
E|-----------------3-3-3-3-3-3-3-3-----------------3-3-3-3-3-3-3-3-|x1

G|-----------------------------------------------------------------|
D|---2---------------2-----------------2----------------2----------|
A|-----3-5-2-3-2-3-----3-5-----2-2-------3-5-2-3----------3-5------|
E|-5---------------5----------------5-----------------5-------3----|x1


[Intro repeated]
G|---------------------------------|
D|---------------------------------|
A|-------3-3------------3-3--------|
E|---5-5-----3-3----5-5----3-3-----|x1

G|-----------------------------------------------------------------|
D|-----------------------------------------------------------------| 
A|-------3-3-3-2-2-2-5-5-5-------3-3-3-2-2-2-----------------------| 
E|--5-5-5------------------5-5-5------------3-3-3------------------|x2

G|-----------------------------------------------------------------|
D|-----------------------------------------------------------------|
A|-2-2-2-2-2-2-2-2-----------------2-2-2-2-2-2-2-2-----------------|
E|-----------------3-3-3-3-3-3-3-3-----------------3-3-3-3-3-3-3-3-|x1

G|-----------------------------------------------------------------|
D|---2---------------2-----------------2----------------2----------|
A|-----3-5-2-3-2-3-----3-5-----2-2-------3-5-2-3----------3-5------|
E|-5---------------5----------------5-----------------5------------|x1



G|-----------------------------------------------------------------|
D|-----------------------------------------------------------------|
A|-----------------------------4-4-4-4-4-4-4-4-4-4-4-4-4-2-4-5-5-5-|
E|-5-5-5-5-5-5-5-5-5-5-5-5-5-5-------------------------------------|x1

G|-----------------------------------------------------------------|
D|-----------------------------------------------------------------|
A|-5-5-5-5-5-5-5-5-5-2-2-2-2-2-2-2-2-2-2-2-2-2---------------------|
E|-----------------------------------------------------------------|x1

G|-----------------------------------------------------------------|
D|-----------------------------------------------------------------|
A|-----------------------------4-4-4-4-4-4-4-4-4-4-4-4-4-2-4-5-5-5-|
E|-5-5-5-5-5-5-5-5-5-5-5-5-5-5-------------------------------------|x1
x
G|-----------------------------------------------------------------|
D|-----------------------------------------------------------------|
A|-5-5-5-5-5-5-5-5-5-2-2-2-2-2-2-2-2-2-2-2-2-2---------------------|
E|-----------------------------------------------------------------|x1


  (im really lazy so i’m not gonna tab out each repeated note, i’m 
   pretty sure each note cluster is somewhere around 8-14 picks 
   more or less, just listen to the song and play what you hear)


G|-----------------------------------------------------------------|
D|-----------------------------------------------------------------|
A|-4(x10)-2-4------5(x10)--7-7--4(x1)-2-4----5(x10)----------------|
E|----------------------------------------------------5(x10)-7-----|x1

G|-----------------------------------------------------------------|
D|-----------------------------------------------------------------|
A|-----------------------------------------------------------------|
E|-4(x10)-5----2(x10)----0(x10)---4(x10)---5(x10)-7------4(x10)-5--|x1

G|-----------------------------------------------------------------|
D|-----------------------------------------------------------------|
A|-----------------------------------------------------------------|
E|-2(x10)----------------------------------------------------------|x1



G|-----------------------------------------------------------------|
D|-----------------------------------------------------------------|
A|-----------------------------------------------------------------|
E|-4(x14)------5(x14)----4(x14)-----2(x14)----0(x10)----4(x14)-----|x1

G|-----------------------------------------------------------------|
D|-----------------------------------------------------------------|
A|-----------------------------------------------------------------|
E|-5(x14)----4(x14)-----0(x14)-----5(x14)-----4(x14)----0(x14)-----|x1

G|-----------------------------------------------------------------|
D|-----------------------------------------------------------------|
A|-----------------------------------------------------------------|
E|-5(x14)-----4(x14)----0(x14)------4------------------------------|x1 
Suggest correction
Give kudos to tab author, rate the tab!
1 2 3 4 5
comments
print report bad tab
guest
You may want to rate the tab now too:
select rating
Wanna post a correction for this tab? Suggest correction