Oops, an error
Loading. Please wait.

My Fight tab

version 1
version 1

Whole song

Interactive

964 views 6 this week
no commentswrite comment
1 2 3 4 5
x 4
add to favorites
×
Save as Personal and add changes to this tab that will be seen only by you. Learn more ›
×
You can save this tab as Personal to edit and correct it or add notes. All changes will be seen only by you. Learn more »
launch autoscroll
font size
0
reset
how to read this tab
guitar tuner
edit
Autoscroll
slow
fast
+/-
esc
set tempo
stop
[Intro] 

(After the synth intro)

e|------------------------------------------------------------------------------|
B|------------------------------------------------------------------------------|
G|------------------------------------------------------------------------------|
D|0-0-0-0-0-0-0-0-----3-3-3-3-3-3-3-3-----3-3-3-3-3-3-3-3-----5-5-5-5-5-5-5-5---|
A|0-0-0-0-0-0-0-0-----1-1-1-1-1-1-1-1-----3-3-3-3-3-3-3-3-----3-3-3-3-3-3-3-3---|
E|0-0-0-0-0-0-0-0-------------------------3-3-3-3-3-3-3-3-----------------------|

e|------------------------------------------------------------------------------|
B|------------------------------------------------------------------------------|
G|------------------------------------------------------------------------------|
D|0-0-0-0-0-0-0-0-----3-3-3-3-3-3-3-3-----3-3-3-3-3-3-3-3-----5-5-5-5-5-5-5-5---|
A|0-0-0-0-0-0-0-0-----1-1-1-1-1-1-1-1-----3-3-3-3-3-3-3-3-----3-3-3-3-3-3-3-3---|
E|0-0-0-0-0-0-0-0-------------------------3-3-3-3-3-3-3-3-----------------------|


[Verse] 

(No guitar in the verse until around 0:41)

e|------------------------------------------------------------------------------|
B|------------------------------------------------------------------------------|
G|------------------------------------------------------------------------------|
D|0-0-0---0-------0-0-0---0-0-0---0-----0-0-0---0-----0-0-0-----8-8-8---8-------|
A|0-0-0---0-------0-0-0---0-0-0---0-----0-0-0---0-----0-0-0-----8-8-8---8-------|
E|0-0-0---0-------0-0-0---0-0-0---0-----0-0-0---0-----0-0-0-----8-8-8---8-------|

e|------------------------------------------------------------------------------|
B|------------------------------------------------------------------------------|
G|------------------------------------------------------------------------------|
D|0-0-0---0-------0-0-0---0-0-0---0-----0-0-0---0-----0-0-0-----8-8-8---8-------|
A|0-0-0---0-------0-0-0---0-0-0---0-----0-0-0---0-----0-0-0-----8-8-8---8-------|
E|0-0-0---0-------0-0-0---0-0-0---0-----0-0-0---0-----0-0-0-----8-8-8---8-------|


[Pre-Chorus]

e|---------------------------------------------------------------------------|
B|---------------------------------------------------------------------------|
G|---------------------------------------------------------------------------|
D|0-8--7-3--2-3--5-3--0-8--7----7-3--0---------------------------------------|
A|---------------------------8-----------------------------------------------|
E|---------------------------------------------------------------------------|


[Chorus]

e|-------------------------------------------------------------------------------|
B|-------------------------------------------------------------------------------|
G|-------------------------------------------------------------------------------|
D|0-0-0-0-0-0-0-0-----3-3-3-3-3-3-3-3-----3-3-3-3-3-3-3-3-----5-5-5-5-5-5-5-5----|
A|0-0-0-0-0-0-0-0-----1-1-1-1-1-1-1-1-----3-3-3-3-3-3-3-3-----3-3-3-3-3-3-3-3----|
E|0-0-0-0-0-0-0-0-------------------------3-3-3-3-3-3-3-3------------------------|

e|-------------------------------------------------------------------------------|
B|-------------------------------------------------------------------------------|
G|-------------------------------------------------------------------------------|
D|0-0-0-0-0-0-0-0-----3-3-3-3-3-3-3-3-----3-3-3-3-3-3-3-3-----5-5-5-5-5-5-5-5----|
A|0-0-0-0-0-0-0-0-----1-1-1-1-1-1-1-1-----3-3-3-3-3-3-3-3-----3-3-3-3-3-3-3-3----|
E|0-0-0-0-0-0-0-0-------------------------3-3-3-3-3-3-3-3------------------------|


[Verse 2]

(No guitar until around 1:29)

e|-------------------------------------------------------------------------------|
B|-------------------------------------------------------------------------------|
G|-------------------------------------------------------------------------------|
D|0-0-0---0-------0-0-0---0-0-0---0-----0-0-0---0-----0-0-0-----8-8-8---8--------|
A|0-0-0---0-------0-0-0---0-0-0---0-----0-0-0---0-----0-0-0-----8-8-8---8--------|
E|0-0-0---0-------0-0-0---0-0-0---0-----0-0-0---0-----0-0-0-----8-8-8---8--------|

e|-------------------------------------------------------------------------------|
B|-------------------------------------------------------------------------------|
G|-------------------------------------------------------------------------------|
D|0-0-0---0-------0-0-0---0-0-0---0-----0-0-0---0-----0-0-0-----8-8-8---8--------|
A|0-0-0---0-------0-0-0---0-0-0---0-----0-0-0---0-----0-0-0-----8-8-8---8--------|
E|0-0-0---0-------0-0-0---0-0-0---0-----0-0-0---0-----0-0-0-----8-8-8---8--------|


[Chorus 2]

e|-------------------------------------------------------------------------------|
B|-------------------------------------------------------------------------------|
G|-------------------------------------------------------------------------------|
D|0-0-0-0-0-0-0-0-----3-3-3-3-3-3-3-3-----3-3-3-3-3-3-3-3-----5-5-5-5-5-5-5-5----|
A|0-0-0-0-0-0-0-0-----1-1-1-1-1-1-1-1-----3-3-3-3-3-3-3-3-----3-3-3-3-3-3-3-3----|
E|0-0-0-0-0-0-0-0-------------------------3-3-3-3-3-3-3-3------------------------|

e|-------------------------------------------------------------------------------|
B|-------------------------------------------------------------------------------|
G|-------------------------------------------------------------------------------|
D|0-0-0-0-0-0-0-0-----3-3-3-3-3-3-3-3-----3-3-3-3-3-3-3-3-----5-5-5-5-5-5-5-5----|
A|0-0-0-0-0-0-0-0-----1-1-1-1-1-1-1-1-----3-3-3-3-3-3-3-3-----3-3-3-3-3-3-3-3----|
E|0-0-0-0-0-0-0-0-------------------------3-3-3-3-3-3-3-3------------------------|

e|-------------------------------------------------------------------------------|
B|-------------------------------------------------------------------------------|
G|-------------------------------------------------------------------------------|
D|3-3-3-3-3-3-3-3-----0-0-0-0-0-0-0-0-----3-3-3-3-3-3-3-3-----5-5-5-5-5-5-5-5----|
A|1-1-1-1-1-1-1-1-----0-0-0-0-0-0-0-0-----3-3-3-3-3-3-3-3-----3-3-3-3-3-3-3-3----|
E|--------------------0-0-0-0-0-0-0-0-----3-3-3-3-3-3-3-3------------------------|

e|-------------------------------------------------------------------------------|
B|-------------------------------------------------------------------------------|
G|-------------------------------------------------------------------------------|
D|0-0-0-0-0-0-0-0-----3-3-3-3-3-3-3-3-----3-3-3-3-3-3-3-3-----5-5-5-5-5-5-5-5----|
A|0-0-0-0-0-0-0-0-----1-1-1-1-1-1-1-1-----3-3-3-3-3-3-3-3-----3-3-3-3-3-3-3-3----|
E|0-0-0-0-0-0-0-0-------------------------3-3-3-3-3-3-3-3------------------------|


[Bridge]

e|------------------------------------------------------------------------------------|
B|------------------------------------------------------------------------------------|
G|------------------------------------------------------------------------------------|
D|3-3-3-3-3-3-3-3-----0---0---0-0-0-0-0-0-----5-5-5-5-5-5-5-5-----0---0---0-0-0-0-0-0-|
A|1-1-1-1-1-1-1-1-----0---0---0-0-0-0-0-0-----3-3-3-3-3-3-3-3-----0---0---0-0-0-0-0-0-|
E|--------------------0---0---0-0-0-0-0-0-------------------------0---0---0-0-0-0-0-0-|

e|------------------------------------------------------------------------------------|
B|------------------------------------------------------------------------------------|
G|------------------------------------------------------------------------------------|
D|3-3-3-3-3-3-3-3-----3-3-3-3-3-3-3-3-----5-5-5-5-5-5-5-5-------5---5---5-5-5-5-5-5---|
A|1-1-1-1-1-1-1-1-----1-1-1-1-1-1-1-1-----3-3-3-3-3-3-3-3-------3---3---3-3-3-3-3-3---|
E|------------------------------------------------------------------------------------|


[Breakdown] 

e|------------------------------------------------------------------------------------------------------|
B|------------------------------------------------------------------------------------------------------|
G|------------------------------------------------------------------------------------------------------|
D|0---0---0-0-0-0-0-0-0-----0---0-----0-0-0-0-0-0-0-----0---0-----0-0-0-0-0-0-0---0--0----0-0-0-0-0-0-0-|
A|0---0---0-0-0-0-0-0-0-----0---0-----0-0-0-0-0-0-0-----0---0-----0-0-0-0-0-0-0---0--0----0-0-0-0-0-0-0-|
E|0---0---0-0-0-0-0-0-0-----0---0-----0-0-0-0-0-0-0-----0---0-----0-0-0-0-0-0-0---0--0----0-0-0-0-0-0-0-|

e|----------------------------------------------------------------------------------------|
B|----------------------------------------------------------------------------------------|
G|----------------------------------------------------------------------------------------|
D|0---0---0-0-0-0-0-0-0-----0---0-----0-0-0-0-0-0-0-----0---0-----0-0-0-0-0-0-0-----0---0-|
A|0---0---0-0-0-0-0-0-0-----0---0-----0-0-0-0-0-0-0-----0---0-----0-0-0-0-0-0-0-----0---0-|
E|0---0---0-0-0-0-0-0-0-----0---0-----0-0-0-0-0-0-0-----0---0-----0-0-0-0-0-0-0-----0---0-|


[Guitar Solo]

e|---------------------------------------------------------------------------|
B|---11-10------11-10----------10-11--13-11-10-11----------------------------|
G|-7-------10--7------10--7-10-----------------------------------------------|
D|---------------------------------------------------------------------------|
A|---------------------------------------------------------------------------|
E|---------------------------------------------------------------------------|

e|---------------------------------------------------------------------------|
B|---------------------------------------------------------------------------|
G|-10-11-13-11-10-13-11-10--8-8-8-8-8-11-10-8-11-10--------------------------|
D|---------------------------------------------------------------------------|
A|---------------------------------------------------------------------------|
E|---------------------------------------------------------------------------|


e|---------------------------------------------------------------------------|
B|---11-10------11-10----------10-11--13-11-10-11----------------------------|
G|-7-------10--7------10--7-10-----------------------------------------------|
D|---------------------------------------------------------------------------|
A|---------------------------------------------------------------------------|
E|---------------------------------------------------------------------------|

e|---------------------------------------------------------------------------|
B|---------------------------------------------------------------------------|
G|-10-11-13-11-10-13-11-10--8-8-8-8-8-11-10-8-11-10--------------------------|
D|---------------------------------------------------------------------------|
A|---------------------------------------------------------------------------|
E|---------------------------------------------------------------------------|


[Chorus 3]

e|----------------------------------------------------------------------------------|
B|----------------------------------------------------------------------------------|
G|----------------------------------------------------------------------------------|
D|--------------------3-3-3-3-3-3-3-3-----5-5-5-5-5-5-5-5---------------------------|
A|--------------------3-3-3-3-3-3-3-3-----3-3-3-3-3-3-3-3---------------------------|
E|--------------------3-3-3-3-3-3-3-3-----------------------------------------------|

e|----------------------------------------------------------------------------------|
B|----------------------------------------------------------------------------------|
G|----------------------------------------------------------------------------------|
D|0-0-0-0-0-0-0-0-----3-3-3-3-3-3-3-3-----3-3-3-3-3-3-3-3-----5-5-5-5-5-5-5-5-------|
A|0-0-0-0-0-0-0-0-----1-1-1-1-1-1-1-1-----3-3-3-3-3-3-3-3-----3-3-3-3-3-3-3-3-------|
E|0-0-0-0-0-0-0-0-------------------------3-3-3-3-3-3-3-3---------------------------|

e|----------------------------------------------------------------------------------|
B|----------------------------------------------------------------------------------|
G|----------------------------------------------------------------------------------|
D|3-3-3-3-3-3-3-3-----0-0-0-0-0-0-0-0-----3-3-3-3-3-3-3-3-----5-5-5-5-5-5-5-5-------|
A|1-1-1-1-1-1-1-1-----0-0-0-0-0-0-0-0-----3-3-3-3-3-3-3-3-----3-3-3-3-3-3-3-3-------|
E|--------------------0-0-0-0-0-0-0-0-----3-3-3-3-3-3-3-3---------------------------|

e|----------------------------------------------------------------------------------|
B|----------------------------------------------------------------------------------|
G|----------------------------------------------------------------------------------|
D|0-0-0-0-0-0-0-0-----3-3-3-3-3-3-3-3-----3-3-3-3-3-3-3-3-----5-5-5-5-5-5-5-5-------|
A|0-0-0-0-0-0-0-0-----1-1-1-1-1-1-1-1-----3-3-3-3-3-3-3-3-----3-3-3-3-3-3-3-3-------|
E|0-0-0-0-0-0-0-0-------------------------3-3-3-3-3-3-3-3---------------------------|


[Outro]

e|----------------------------------------------------------------------------------------|
B|----------------------------------------------------------------------------------------|
G|----------------------------------------------------------------------------------------|
D|0---0---0-0-0-0-0-0-0-----0---0-----0-0-0-0-0-0-0-----0---0-----0-0-0-0-0-0-0-----0---0-|
A|0---0---0-0-0-0-0-0-0-----0---0-----0-0-0-0-0-0-0-----0---0-----0-0-0-0-0-0-0-----0---0-|
E|0---0---0-0-0-0-0-0-0-----0---0-----0-0-0-0-0-0-0-----0---0-----0-0-0-0-0-0-0-----0---0-|

            
            
Suggest correction
Creating personal tab
Creating personal tab
You can edit any tab online and save it as your Personal.

You can edit, replace or remove any tab part or add personal notes – all changes will be seen only by you.

Personal tabs can be accessed anytime from any device, even offline.
Learn more »
comments
print report bad tab
guest
You may want to rate the tab now too:
select rating
Wanna post a correction for this tab? Suggest correction