Oops, an error
Loading. Please wait.

Stay This Way Tab

37 views 18 this week
no commentswrite comment
1 2 3 4 5
3 more votes to show rating
add to favorites
launch autoscroll
font size
0
reset
how to read this tab
guitar tuner
Autoscroll
slow
fast
+/-
esc
set tempo
stop
Help us to improve Ultimate-Guitar.com Take our survey!
×
Author
Difficulty
Tuning
novice
C G C F A D
-------------------------------------------------------------------------------------
                             Stay This Way - From Ashes To New
-------------------------------------------------------------------------------------
Tuning: drop C
Tabbed by Bart Baart


[Intro]
Piano plays melody: (DDBb DDABb DDBb DDFE DDBb DDFE DDBb DDFE) REPEATS 2X
D|-------------|--------------|-------------|--------------|
A|-------------|--------------|-------------|--------------|
F|-------------|--------------|-------------|--------------|
C|-------10----|-------9-10---|-------10----|--------------|
G|-7---7-------|-7---7--------|-7---7-------|-7---7-10-9---|
C|-------------|--------------|-------------|--------------|

D|-------------|--------------|-------------|--------------|
A|-------------|--------------|-------------|--------------|
F|-------------|--------------|-------------|--------------|
C|-------10----|--------------|-------10----|--------------|
G|-7---7-------|-7---7-10-9---|-7---7-------|-7---7-10-9---|
C|-------------|--------------|-------------|--------------|

on the second and last repeat of the piano melody the guitar plays:
D|-------------------------|-------------------------|
A|-12-12-12-12-12-12-12-12-|-13-13-13-13-12-12-12-12-|
F|-9--9--9--9--9--9--9--9--|-9--9--9--9--9--9--9--9--|
C|-------------------------|-------------------------|
G|-------------------------|-------------------------|
C|-------------------------|-------------------------|

D|-------------------------|-------------------------|
A|-12-12-12-12-------------|-------------------------|
F|-9--9--9--9--------------|-------------16-16-16-16-|
C|-------------14-14-14-14-|-14-14-14-14-14-14-14-14-|
G|-------------12-12-12-12-|-12-12-12-12-------------|
C|-------------------------|-------------------------|

D|-------------------------|-------------------------|
A|-------------------------|-------------------------|
F|-------------------------|-------------------------|
C|-14-14-14-14-14-14-14-14-|-14-14-14-14-14-14-14-14-|
G|-12-12-12-12-12-12-12-12-|-12-12-12-12-12-12-12-12-|
C|-------------------------|-------------------------|

D|---------------------|---------------------|
A|---------------------|---------------------|
F|-12-12--12-12-12--12-|---------------------|
C|-10-10--10-10-10--10-|-12-12--12-12-12--12-|
G|---------------------|-10-10--10-10-10--10-|
C|---------------------|---------------------|


[Verse 1]
D|---------------------------------|---------------------------------|
A|---------------------------------|---------------------------------|
F|---------------------------------|---------------------------------|
C|-2-2-2-2-2-2-2-2-2-2-2-2-2-2-2-2-|-2-2-2-2-2-2-2-2-2-2-2-2-2-2-2-2-|
G|-2-2-2-2-2-2-2-2-2-2-2-2-2-2-2-2-|-2-2-2-2-2-2-2-2-2-2-2-2-2-2-2-2-|
C|-2-2-2-2-2-2-2-2-2-2-2-2-2-2-2-2-|-2-2-2-2-2-2-2-2-2-2-2-2-2-2-2-2-|

D|---------------------------------|---------------------------------|
A|---------------------------------|---------------------------------|
F|---------------------------------|-5-5-5-5-5-5-5-5-----------------|
C|-0-0-0-0-0-0-0-0-0-0-0-0-0-0-0-0-|-5-5-5-5-5-5-5-5-5-5-5-5-5-5-5-5-|
G|-0-0-0-0-0-0-0-0-0-0-0-0-0-0-0-0-|-3-3-3-3-3-3-3-3-5-5-5-5-5-5-5-5-|
C|-0-0-0-0-0-0-0-0-0-0-0-0-0-0-0-0-|-----------------5-5-5-5-5-5-5-5-|(x2)


[Pre-Chorus]
Synthesizer plays something


[Chorus]
D|---------------------------------|---------------------------------|
A|---------------------------------|---------------------------------|
F|---------------------------------|---------------------------------|
C|-2-x-x-2-x-x-2-x-2-x-x-2-x-x-2-x-|-2-x-x-2-x-x-2-x-2-x-x-2-x-x-2-x-|
G|-2-x-x-2-x-x-2-x-2-x-x-2-x-x-2-x-|-2-x-x-2-x-x-2-x-2-x-x-2-x-x-2-x-|
C|-2-x-x-2-x-x-2-x-2-x-x-2-x-x-2-x-|-2-x-x-2-x-x-2-x-2-x-x-2-x-x-2-x-|

D|---------------------------------|-----------------------------|
A|---------------------------------|-----------------------------|
F|---------------------------------|-5-5--5-5-5--5---------------|
C|-0-x-x-0-x-x-0-x-0-x-x-0-x-x-0-x-|-5-5--5-5-5--5-5-5--5-5-5--5-|
G|-0-x-x-0-x-x-0-x-0-x-x-0-x-x-0-x-|-3-3--3-3-3--3-5-5--5-5-5--5-|
C|-0-x-x-0-x-x-0-x-0-x-x-0-x-x-0-x-|---------------5-5--5-5-5--5-|


[Verse 2]
D|---------------------------------|---------------------------------|
A|---------------------------------|---------------------------------|
F|---------------------------------|---------------------------------|
C|-2-2-2-2-2-2-2-2-2-2-2-2-2-2-2-2-|-2-2-2-2-2-2-2-2-2-2-2-2-2-2-2-2-|
G|-2-2-2-2-2-2-2-2-2-2-2-2-2-2-2-2-|-2-2-2-2-2-2-2-2-2-2-2-2-2-2-2-2-|
C|-2-2-2-2-2-2-2-2-2-2-2-2-2-2-2-2-|-2-2-2-2-2-2-2-2-2-2-2-2-2-2-2-2-|

D|---------------------------------|---------------------------------|
A|---------------------------------|---------------------------------|
F|---------------------------------|-5-5-5-5-5-5-5-5-----------------|
C|-0-0-0-0-0-0-0-0-0-0-0-0-0-0-0-0-|-5-5-5-5-5-5-5-5-5-5-5-5-5-5-5-5-|
G|-0-0-0-0-0-0-0-0-0-0-0-0-0-0-0-0-|-3-3-3-3-3-3-3-3-5-5-5-5-5-5-5-5-|
C|-0-0-0-0-0-0-0-0-0-0-0-0-0-0-0-0-|-----------------5-5-5-5-5-5-5-5-|(x2)


[Pre-Chorus]
Synthesizer plays something


[Chorus]
D|-----------------------------|-----------------------------|
A|-----------------------------|-----------------------------|
F|-----------------------------|-----------------------------|
C|-2-2-2-----2-x-x-2-x-x-2-x-x-|-2-2-2-----2-x-x-2-x-x-2-x-x-|
G|-2-2-2-----2-x-x-2-x-x-2-x-x-|-2-2-2-----2-x-x-2-x-x-2-x-x-|
C|-2-2-2-----2-x-x-2-x-x-2-x-x-|-2-2-2-----2-x-x-2-x-x-2-x-x-|

D|-----------------------------|-----------------------------|
A|-----------------------------|-----------------------------|
F|-----------------------------|-5-5--5-5-5--5---------------|
C|-0-0-0-----0-x-x-0-x-x-0-x-x-|-5-5--5-5-5--5-5-5--5-5-5--5-|
G|-0-0-0-----0-x-x-0-x-x-0-x-x-|-3-3--3-3-3--3-5-5--5-5-5--5-|
C|-0-0-0-----0-x-x-0-x-x-0-x-x-|---------------5-5--5-5-5--5-|


[Verse 2]
Piano plays melody: (DDBb DDABb DDBb DDFE DDBb DDFE)
D|-------------|--------------|-------------|--------------|
A|-------------|--------------|-------------|--------------|
F|-------------|--------------|-------------|--------------|
C|-------10----|-------9-10---|-------10----|--------------|
G|-7---7-------|-7---7--------|-7---7-------|-7---7-10-9---|
C|-------------|--------------|-------------|--------------|

D|-------------|--------------|---------|---------|
A|-------------|--------------|---------|---------|
F|-------------|--------------|---------|---------|
C|-------10----|--------------|---------|---------|
G|-7---7-------|-7---7-10-9---|---------|---------|
C|-------------|--------------|---------|---------|


[Verse 1]
D|---------------------------------|---------------------------------|
A|---------------------------------|---------------------------------|
F|---------------------------------|---------------------------------|
C|-2-2-2-2-2-2-2-2-2-2-2-2-2-2-2-2-|-2-2-2-2-2-2-2-2-2-2-2-2-2-2-2-2-|
G|-2-2-2-2-2-2-2-2-2-2-2-2-2-2-2-2-|-2-2-2-2-2-2-2-2-2-2-2-2-2-2-2-2-|
C|-2-2-2-2-2-2-2-2-2-2-2-2-2-2-2-2-|-2-2-2-2-2-2-2-2-2-2-2-2-2-2-2-2-|

D|---------------------------------|---------------------------------|
A|---------------------------------|---------------------------------|
F|---------------------------------|-5-5-5-5-5-5-5-5-----------------|
C|-0-0-0-0-0-0-0-0-0-0-0-0-0-0-0-0-|-5-5-5-5-5-5-5-5-5-5-5-5-5-5-5-5-|
G|-0-0-0-0-0-0-0-0-0-0-0-0-0-0-0-0-|-3-3-3-3-3-3-3-3-5-5-5-5-5-5-5-5-|
C|-0-0-0-0-0-0-0-0-0-0-0-0-0-0-0-0-|-----------------5-5-5-5-5-5-5-5-|(x4)


[Outro]
Piano plays melody and fades out: (DDBb DDABb DDBb DDFE DDBb DDFE DDBb DDFE)
D|-------------|--------------|-------------|--------------|
A|-------------|--------------|-------------|--------------|
F|-------------|--------------|-------------|--------------|
C|-------10----|-------9-10---|-------10----|--------------|
G|-7---7-------|-7---7--------|-7---7-------|-7---7-10-9---|
C|-------------|--------------|-------------|--------------|

D|-------------|--------------|-------------|--------------|
A|-------------|--------------|-------------|--------------|
F|-------------|--------------|-------------|--------------|
C|-------10----|--------------|-------10----|--------------|
G|-7---7-------|-7---7-10-9---|-7---7-------|-7---7-10-9---|
C|-------------|--------------|-------------|--------------|


************************************

| x   Dead note

************************************
Suggest correction
Give kudos to tab author, rate the tab!
1 2 3 4 5
comments
print report bad tab
guest
You may want to rate the tab now too:
select rating
Wanna post a correction for this tab? Suggest correction