Oops, an error
Loading. Please wait.

Chloroform Perfume Tab

version 1
version 1

Whole song

Interactive

17,048 views 6 this week
8 commentsread comments
1 2 3 4 5
x 7
add to favorites
launch autoscroll
font size
0
reset
how to read this tab
guitar tuner
×
Best way to learn
"Chloroform Perfume"
Autoscroll
slow
fast
+/-
esc
set tempo
stop
Author
This is a cool song, if anyone would like do figure out the solo please do so :)

INTRO/VERSE- Timing is weird but listen to it and you should get it
------------0----------------------------------------------------------
------------0--------------------------0-------------------------------
--------0---0.--0---------------0------0----------------------------0--
-----9-------------9------9>10---------9.-----9--------------0------0.-
--7-------------------7------------7------7------10----7>9-------9-----
-----------------------------------------------------------------------

------------------------------------------
------------------------------------------
------------------------------------------
--------------------0--------------0------
------9-------9>10---------0---------9----
--7------10.----------10-7--10-7----------

Pre-Chorus ("You said so much...")
E ----0-----0
B ----1-----0
G ----0-----0
D ----2-----2
A ----3-----2
E ----x-----0

Chorus ("It's past 3 AM...")
E ----7-----x-----x
B ----8-----x-----x
G ----9-----7-----5
D ----9-----7-----5
E ----7-----5-----3
A ----x-----x-----x

After Solo Thing Chords ("She keeps on asking...") (not too sure bout this)
E ----0-----2-----3-----x
B ----2-----x-----0-----0
G ----2-----0-----0-----2
D ----0-----2-----0-----0
A ----3-----3-----3-----3
E ----0-----x-----x-----0

Basic Last Part with Distortion ("She laced her perfume...")
E ----x-----x-----x
B ----x-----x-----x
G ----x-----7-----5
D ----2-----7-----5
A ----2-----5-----3
E ----0-----x-----x
Suggest correction
comments
print report bad tab
8 comments total. Showing first comments.
0 reply
drevil311 10 Aug 22, 2003 08:00 PM

Here is a way I found to play the intro/verse that seems to sound a little closer to the cd:

E-------------------------------------------------------------------
B--------0----------------0---------------0---------------0-------0-
G------0--------------0-----------------0---0-----------0-------0---
D----9-------9---9h10---------9-------0-------0-------0-------0-----
A--7-------7---7--------7---7---7-7h9-----------7-7h9-------9-------
E-------------------------------------------------------------------

Here is what I think I remember the solo to be ( can't find my cd right now, but this sounds right ) :

E----------------------------------------3-2-0---0-------------------
B--3--1--0-0h1-0----X3-end-with-0-then---------3---1-3-0-1---0-------
G----------------0-----------------------------------------2---0-----
D--------------------------------------------------------------------
A--------------------------------------------------------------------
E--------------------------------------------------------------------

0 reply
Corbs 166 Nov 25, 2005 12:33 PM

e------------------------------------------------------------------
B------------------------------------------------------------------
G------------------------------------------------------------------
D--12--10-9--9h10p9------(x3)---9----9-10-9-10-12-10-9-------------
A-------------------10------------------(quite fast)---------------
E------------------------------------------------------------------

e-------------------------------------------|------------------------
B-------------------------------------------|------------------------
G-------------------------------------------|-1211979--7-------------
D--10~--9~-----10~--9~------10/12--10-10--9~|--------10-91079-7------
A----------10~---------10-------------------|----------------10-910--
E-------------------------------------------|-

0 reply
Corbs 166 Nov 25, 2005 12:33 PM

that's the solo, my friend.

guest
You may want to rate the tab now too:
select rating
Wanna post a correction for this tab? Suggest correction