Oops, an error
Loading. Please wait.

Fiction We Live album tab

version 1
version 1

Album

Whole song

1,746 views 1 this week
1 commentread comment
1 2 3 4 5
x 4
add to favorites
×
Save as Personal and add changes to this tab that will be seen only by you. Learn more ›
×
You can save this tab as Personal to edit and correct it or add notes. All changes will be seen only by you. Learn more »
launch autoscroll
font size
0
reset
how to read this tab
guitar tuner
edit
Autoscroll
slow
fast
+/-
esc
set tempo
stop
Author
Difficulty
Tabbers playing skills
intermediate
intermediate ++
From Autumn to Ashes-The Fiction We Live
Album Tab.

All the Songs here are probably 100% correct, they are all here except "The Second Wrong 
You Feel Right" well Please Rate!

Tabbed by Edwardthegreat5 At Ultimate Guitar.com
1. The After Dinner Payback
2. Lilacs and Lolitas
3. No Trivia
4. Milligram Smile
5.The Second Wrong Makes You Feel Right
6. Every Reason To
7. Autumns Monologue
8. Alive Out of Habit
9. All I Taste Today Is What's Her Name
10. The Fiction We Live
11. I'm the Best at Ruining My Life


__________________________________________________________________________________
1.


Artist: From Autumn To Ashes
Song: The After Dinner Payback
Album: The Fiction We Live
Tuning: Standard


.=Palm Mute
p=pull
h=hammer


Intro


Guitar 1
E------------------|
B------------------|
G------------------|
D--2----------2----|
A--2----------2----|
E--0----------0----|

Guitar 2   4x
E---------------------------0-------|
B--7----8-----7-----7---8-------7---|
G-----9---9-9---9-9---9---9---9-----|
D-----------------------------------|
A-----------------------------------|
E-----------------------------------|


Both Guitars
E--------------------------------------------------------------------|
B--------------------------------------------------------------------|
G-------------------------------------5-5--5-5--55555555--5-5--5-5---|
D-2-2--2-2------------2-2--2-2--------5-5--5-5--55555555--5-5--5-5---|
A-2-2--2-2------------2-2--2-2--------3-3--3-3--33333333--3-3--3-3---|
E-0-0--0-0--00000000--0-0--0-0--0000---------------------------------|
            ........            ....            ........


Guitar 2 Fast

E---------------------------0------------------------------0-----|
B--7----8-----7-----7---8-------7-----7-7---8----7--8--7---------|
G-----9---9-9---9-9---9---9---9-----9-----9---9-9--9--9--9-------|
D----------------------------------------------------------------|
A----------------------------------------------------------------|
E----------------------------------------------------------------|


E-------------------------------0----------------0------------|
B------3---3--5------3----3---3---3---3----3---3---3---3------|
G---5----5------5--5----5---5-------5----5---5-------5--------|
D-------------------------------------------------------------|
A-------------------------------------------------------------|
E-------------------------------------------------------------|


Guitar 1
E--------------------------------------------------------------------|
B--------------------------------------------------------------------|
G-------------------------------------5-5--5-5--55555555--5-5--5-5---|
D-2-2--2-2------------2-2--2-2--------5-5--5-5--55555555--5-5--5-5---|
A-2-2--2-2------------2-2--2-2--------3-3--3-3--33333333--3-3--3-3---|
E-0-0--0-0--00000000--0-0--0-0--0000---------------------------------|
            ........            ....            ........

Both Guitars
E-----------------------------------------|
B-----------------------------------------|
G-----------------------------------------|
D-2-2--2-2------------2-2--2-2------------|
A-2-2--2-2------------2-2--2-2------------|
E-0-0--0-0--00000000--0-0--0-0--0000------|
            ........            ....

Both Guitars 3 times
E----------------------------------------|
B----------------------------------------|
G----------------------------------------|
D---7p5-4-5-5-4-5-4-4h5------------------|
A----------------------------------------|
E----------------------------------------|

Chorus
Both Guitars 1x
E----------------------------------------------------------------|
B----------------------------------------------------------------|
G--7--5--4-----------7--5--4----------7--5--4--5-----------------|
D-----------5-55555-----------7-77777-------------55555555555----|
A----------------------------------------------------------------|
E----------------------------------------------------------------|

Both Guitars 3x
E-----------------------------------------------------------------|
B-----------------------------------------------------------------|
G--7--5--4-----------7--5--4----------7--5--4--5------------------|
D-----------5-55555-----------7-77777-------------55555555555-----|
A-----------------------------------------------------------------|
E-----------------------------------------------------------------|
                                                  .  .  .  .

Both Guitars 2x
E--------------------------------------------------------------------|
B--------------------------------------------------------------------|
G--------------------------------------------------------------------|
D--555555555-44444444-55555555-44444444-22222222-44444444-55555555---|
A--------------------------------------------------------------------|
E--------------------------------------------------------------------|

E------------------------------------|
B------------------------------------|
G------------------------------------|
D--4444-55555555---------------------|
A------------------------------------|
E------------------------------------|

Both Guitars
E---------------------------------------------------------------------------|
B---------------------------------------------------------------------------|
G--------------------7--5--4---------7--5--4---------7--5--4----------------|
D--555555555555555------------5-5555---------7-77777----------55555555555---|
A---------------------------------------------------------------------------|
E---------------------------------------------------------------------------|

Both Guitars 3x
E-----------------------------------------------------------------|
B-----------------------------------------------------------------|
G--7--5--4-----------7--5--4----------7--5--4--5------------------|
D-----------5-55555-----------7-77777-------------55555555555-----|
A-----------------------------------------------------------------|
E-----------------------------------------------------------------|
                                                  .  .  .  .
Guitar I
E------------------|
B------------------|
G------------------|
D--2----------2----|
A--2----------2----|
E--0----------0----|


Guitar II 4x
E---------------------------0-------|
B--7----8-----7-----7---8-------7---|
G-----9---9-9---9-9---9---9---9-----|
D-----------------------------------|
A-----------------------------------|
E-----------------------------------|


Both Guitars
E--------------------------------------------------------------------|
B--------------------------------------------------------------------|
G-------------------------------------5-5--5-5--55555555--5-5--5-5---|
D-2-2--2-2------------2-2--2-2--------5-5--5-5--55555555--5-5--5-5---|
A-2-2--2-2------------2-2--2-2--------3-3--3-3--33333333--3-3--3-3---|
E-0-0--0-0--00000000--0-0--0-0--0000---------------------------------|
            ........            ....            ........

Guitars II (Play Fast)

E---------------------------0------------------------------0-----|
B--7----8-----7-----7---8-------7-----7-7---8----7--8--7---------|
G-----9---9-9---9-9---9---9---9-----9-----9---9-9--9--9--9-------|
D----------------------------------------------------------------|
A----------------------------------------------------------------|
E----------------------------------------------------------------|



E-------------------------------0----------------0------------|
B------3---3--5------3----3---3---3---3----3---3---3---3------|
G---5----5------5--5----5---5-------5----5---5-------5--------|
D-------------------------------------------------------------|
A-------------------------------------------------------------|
E-------------------------------------------------------------|


Both Guitars
Play Slow:
E--------------------------------------------------------------------|
B--------------------------------------------------------------------|
G-------------------------------------5-5--5-5--55555555--5-5--5-5---|
D-2-2--2-2------------2-2--2-2--------5-5--5-5--55555555--5-5--5-5---|
A-2-2--2-2------------2-2--2-2--------3-3--3-3--33333333--3-3--3-3---|
E-0-0--0-0--00000000--0-0--0-0--0000---------------------------------|
            ........            ....            ........
Both Guitars 3x
E----------------------------------------|
B----------------------------------------|
G----------------------------------------|
D---7p5-4-5-5-4-5-4-4h5------------------|
A----------------------------------------|
E----------------------------------------|

Both Guitars
E------------------|
B------------------|
G------------------|
D--22---------22---|
A--22---------22---|
E--00---------00---|

__________________________________________________________________________________
2.
Artist: From Autumn To Ashes
Song: Lilacs and Lolitas
Album: The Fiction We Live
Tuning: Standard

0:00 Guitar (Intro) play 2x
e|----------------------------------------------------------------------------------------|
B|----------------------------------------------------------------------------------------|
G|-9-----------------10\9-----------------10\9-----------------10\9-------------5-------4-|
D|-9-----------------10\9-----------------10\9-----------------10\9-------------5-------4-|
A|-7-7-7-7-7-7-7-7-7--8\7-7-7-7-7-7-7-7-7--8\7-7-7-7-7-7-7-7-7--8\7-7-7-7-3-3-3-3-2-2-2-2-|
D|----------------------------------------------------------------------------------------|

0:12 Guitars (Verse 1) play 2x
e|---------------------------------------------------------|
B|---------------------------------------------------------|
G|--------5\4------5-5-5\4---------------5--------------4--|
D|--2-----5\4------5-5-5\4---------------5--------------4--|
A|--2-2-2-3\2--2-2-3-3-3\2---3-3-3-3-3-3-3--2-2-2-2-2-2-2--|
D|--2-2-2------2-2-----------------------------------------|
      X X      X     X

0:23 Guitar (Prechorus)
e|---------------------------|
B|---------------------------|
G|---------------------------|
D|---------------------------|
A|--9-10-9-10-9h10p9\7----7--|
D|---------------------10----|

0:24 Guitar (Chorus) play 4x
e|----------------------------------------|
B|----------------------------------------|
G|--------------------5--5-5--7--7-7-7-7--|
D|--2--2-2--2--2-2-2--5--5-5--7--7-7-7-7--|
A|--2--2-2--2--2-2-2--3--3-3--5--5-5-5-5--|
D|--2--2-2--2--2-2-2----------------------|

0:48 Guitar (Verse 2) play 1x
e|----------------------------------------|
B|----------------------------------------|
G|----------------------------------------|
D|--------9-9-9-10-10-10-9-9-9------------|
A|--7-7-7----------------------10-10-9-9--|
E|----------------------------------------|

0:51 Guitar (Verse 2) play 2x
e|-----------------------------------------------|
B|-----------------------------------------------|
G|--9-9-9-9--9-9-9-9--9-9--5-5-5-5--5-5-5-5--7-7-|
D|--9-9-9-9--9-9-9-9--9-9--5-5-5-5--5-5-5-5--7-7-|
A|--7-7-7-7--7-7-7-7--7-7--3-3-3-3--3-3-3-3--5-5-|
D|-----------------------------------------------|

1:02 Guitar 2 (Verse 2)
e|------------------------------------------------------------------------------|
B|------------------------------------------------------------------------------|
G|-9-9-9-9--9-9-9-9--9-9--5-5-5-5--5-5-5-5--7-7---9-9-9-9--9-9-9-9--9-9--5---7--|
D|-9-9-9-9--9-9-9-9--9-9--5-5-5-5--5-5-5-5--7-7---9-9-9-9--9-9-9-9--9-9--5---7--|
A|-7-7-7-7--7-7-7-7--7-7--3-3-3-3--3-3-3-3--5-5---7-7-7-7--7-7-7-7--7-7--3---5--|
D|------------------------------------------------------------------------------|

1:13 Guitar (Chorus) play 4x
e|----------------------------------------|
B|----------------------------------------|
G|--------------------5--5-5--7--7-7-7-7--|
D|--2--2-2--2--2-2-2--5--5-5--7--7-7-7-7--|
A|--2--2-2--2--2-2-2--3--3-3--5--5-5-5-5--|
D|--2--2-2--2--2-2-2----------------------|

1:37 Guitar (Interlude)
e|----------------------------------------------------------------------------------------|
B|----------------------------------------------------------------------------------------|
G|-9-----------------10\9-----------------10\9-----------------10\9-------------5-------4-|
D|-9-----------------10\9-----------------10\9-----------------10\9-------------5-------4-|
A|-7-7-7-7-7-7-7-7-7--8\7-7-7-7-7-7-7-7-7--8\7-7-7-7-7-7-7-7-7--8\7-7-7-7-3-3-3-3-2-2-2-2-|
D|----------------------------------------------------------------------------------------|

1:43 Guitar (Interlude)
e|---------------------------------------------|
B|------------------------------13b------------|
G|------------------------------12b-----5/7-9--|
D|--------------------------------------5/7-9--|
A|--------------------------------------3/5-7--|
D|-2-2-2-2-2-2-2-2-2-2-2-2-2-2-----------------|

1:46 Guitars (Verse 3) play 3x
e|---------------------------------------------------------------|
B|---------------------------------------------------------------|
G|-------------------------9-9-9--------------------------5/7-9--|
D|--2-2-2--2-2-2-2--2-2-2--9-9-9---2-2-2--2-2-2-2--2-2-2--5/7-9--|
A|--2-2-2--2-2-2-2--2-2-2--7-7-7---2-2-2--2-2-2-2--2-2-2--3/5-7--|
D|--2-2-2--2-2-2-2--2-2-2----------2-2-2--2-2-2-2--2-2-2---------|

2:04 Guitars (Verse 3)
e|--------------------------------------------------------|
B|--------------------------------------------------------|
G|-------------------------9-9-9-------------------5---7--|
D|--2-2-2--2-2-2-2--2-2-2--9-9-9---2-2-2--2-2-2----5---7--|
A|--2-2-2--2-2-2-2--2-2-2--7-7-7---2-2-2--2-2-2----3---5--|
D|--2-2-2--2-2-2-2--2-2-2----------2-2-2--2-2-2--2---2----|

2:09 Guitar (Chorus) play 4x
e|----------------------------------------|
B|----------------------------------------|
G|--------------------5--5-5--7--7-7-7-7--|
D|--2--2-2--2--2-2-2--5--5-5--7--7-7-7-7--|
A|--2--2-2--2--2-2-2--3--3-3--5--5-5-5-5--|
D|--2--2-2--2--2-2-2----------------------|

2:33 Guitar 1 (End)
e|-----|
B|-----|
G|-----|
D|--2--|
A|--2--|
D|--2--|

__________________________________________________________________________________
3.
Artist: From Autumn To Ashes
Song: No Trivia
Album: The Fiction We Live
Tuning: Half Step Down


Intro and Verse
eb|-------------------------------|-------------------------------0---------|
Bb|----0----4-0--------0---4-0----|----0---4-0---------0---4-0--------------|
Gb|-------------------------------|-----------------------------------------|
Db|--2---2------2----2---2-----2--|--2---2------2----2---2-----2------------|
Ab|-4------------4--------------4-|-0------------0--------------------------|
Eb|-------------------------------|-----------------------------------------|



Chorus  2x
eb|-----------------------------------------------|-------------------------|
Bb|-----------------------------------------------|-------------------------|
Gb|-13-13-13-13-----13-13-13-13-13----13-14-13-11-|-------------------------|
Db|-x--x--x--x--xx--x--x--x--x--x--xx-x--x--x--x--|-------------------------|
Ab|-11-11-11-11-xx--11-11-11-11-11-xx-11-12-11-9--|-------------------------|
Eb|-0--0--0--0--xx--0--0--0--0--0--xx-0--0--0--0--|-------------------------|


Eb|-------------------------------------------------------------------------|
Bb|-------------------------------------------------------------------------|
Gb|-------------------------------------------------------------------------|
Db|-------------------------------------------------------------------------|
Ab|-9-9-9-9-xx-9-9-9-9-xx-9-9-9-9--11-11-11-11-xx-11-11-11-11-xx-111111-----|
Eb|-7-7-7-7-xx-7-7-7-7-xx-7-7-7-7--9--9--9--9--xx-9--9--9--9--xx-999999-----|

                             Play this on the second time of chorus.
eb|--------------------------|---------|-----------------------------------|
Bb|--------------------------|---------|-----------------------------------|
Gb|--------------------------|---------|-----------------------------------|
Db|--------------------------|-(6)-----|-6\--------------------------------|
Ab|-7-7-7-7-xx-7-7-7-7--xxxx-|-(4)-----|-4-\-------------------------------|
Eb|-5-5-5-5-xx-5-5-5-5--xxxx-|---------|-----------------------------------|


Play this Once
eb|-------------------------------------------------------------------------|
Bb|-9-9-9-9------9-9-9-9------9--10--9-7----7-7-7-7---7-7-7/12-12-12-12-12\-|
Gb|-x-x-x-x------x-x-x-x------x--x-x-x------x-x-x-x---x-x-x-x--x--x--x--x---|
Db|-6-6-6-6--xx--6-6-6-6--xx--6--7---6-4----4-4-4-4---4-4-4/12-9--9--9--9-\-|
Ab|-x-x-x-x--xx--x-x-x-x--xx--x--x---x-x------------------------------------|
Eb|-0-0-0-0--xx--0-0-0-0--xx--0--0---0-0------------------------------------|


eb|---------------------------------|---------------------------------------|
Bb|-7-7/12-12\-7-7--9-9-10-7--------|---------------------------------------|
Gb|-x-x-x--x---x-x--x-x-x--x--------|---------------------------------------|
Db|-4-4/9--9-\-4-4--6-6-7--4--xxxx--|---------------------------------------|
Ab|---------------------------xxxx--|---------------------------------------|
Eb|---------------------------xxxx--|---------------------------------------|

Breakdown
eb|-----------|-------------|-------------|---------------------------------|
Bb|------0----|------0-4----|------0-4----|---------------------------------|
Gb|-----------|-------------|-------------|---------------------------------|
Db|---2-------|-------------|---2---------|---------------------------------|
Ab|-4---------|-4-2---------|-0-----------|---------------------------------|
Eb|-----------|-------------|-------------|---------------------------------|


eb|-------------------------------------------------------------------------|
Bb|-------------------------------------------------------------------------|
Gb|-------------------------------------------------------------------------|
Db|-------------------------------------------------------------------------|
Ab|-6-6-6-6-6--6-6-6-6-6--0-0-0-0-0--0-0-0-0-0------------------------------|
Eb|-4-4-4-4-4--4-4-4-4-4--2-2-2-2-2--2-2-2-2-2------------------------------|


eb|-------------------------------------------------------------------------|
Bb|-------------------------------------------------------------------------|
Gb|-------------------------------------------------------------------------|
Db|-------------------------------------------------------------------------|
Ab|-6-6-6-6-6--6-6-6-6-6--0-0-0-0-0--0-0-0-0-0------------------------------|
Eb|-4-4-4-4-4--4-4-4-4-4--2-2-2-2-2--2-2-2-2-2------------------------------|


Chorus 2x
eb|-----------------------------------------------|-------------------------|
Bb|-----------------------------------------------|-------------------------|
Gb|-13-13-13-13-----13-13-13-13-13----13-14-13-11-|-------------------------|
Db|-x--x--x--x--xx--x--x--x--x--x--xx-x--x--x--x--|-------------------------|
Ab|-11-11-11-11-xx--11-11-11-11-11-xx-11-12-11-9--|-------------------------|
Eb|-0--0--0--0--xx--0--0--0--0--0--xx-0--0--0--0--|-------------------------|


eb|-------------------------------------------------------------------------|
Bb|-------------------------------------------------------------------------|
Gb|-------------------------------------------------------------------------|
Db|-------------------------------------------------------------------------|
Ab|-9-9-9-9-xx-9-9-9-9-xx-9-9-9-9--11-11-11-11-xx-11-11-11-11-xx-111111-----|
Eb|-7-7-7-7-xx-7-7-7-7-xx-7-7-7-7--9--9--9--9--xx-9--9--9--9--xx-999999-----|


eb|--------------------------|----------------------------------------------|
Bb|--------------------------|----------------------------------------------|
Gb|--------------------------|----------------------------------------------|
Db|--------------------------|----------------------------------------------|
Ab|-7-7-7-7-xx-7-7-7-7--xxxx-|----------------------------------------------|
Eb|-5-5-5-5-xx-5-5-5-5--xxxx-|----------------------------------------------|


Chorus 2x
eb|-------------------------------------------------------------------------|
Bb|-9-9-9-9------9-9-9-9------9--10--9-7----7-7-7-7---7-7-7/12-12-12-12-12\-|
Gb|-x-x-x-x------x-x-x-x------x--x---x------x-x-x-x---x-x-x-x--x--x--x--x---|
Db|-6-6-6-6--xx--6-6-6-6--xx--6--7---6-4----4-4-4-4---4-4-4/12-9--9--9--9-\-|
Ab|-x-x-x-x--xx--x-x-x-x--xx--x--x---x-x------------------------------------|
Eb|-0-0-0-0--xx--0-0-0-0--xx--0--0---0-0------------------------------------|


eb|---------------------------------|---------------------------------------|
Bb|-7-7/12-12\-7-7--9-9-10-7--------|---------------------------------------|
Gb|-x-x-x--x---x-x--x-x-x--x--------|---------------------------------------|
Db|-4-4/9--9-\-4-4--6-6-7--4--xxxx--|---------------------------------------|
Ab|---------------------------xxxx--|---------------------------------------|
Eb|---------------------------xxxx--|---------------------------------------|


(Gtr.1)
eb|-------------------------------------------------------------------------|
Bb|-------------------------------------------------------------------------|
Gb|-------------------------------------------------------------------------|
Db|-11-11-11-11-11-11-11-11-11-11-11-11-11-11-11-11-------------------------|
Ab|-9--9--9--9--9--9--9--9--9--9--9--9--9--9--9--9--------------------------|
Eb|-------------------------------------------------------------------------|


eb|-------------------------------------------------------------------------|
Bb|-------------------------------------------------------------------------|
Gb|-------------------------------------------------------------------------|
Db|-11-11-11-11-11-11-11-11-11-11-11-11-11-11-11-11-------------------------|
Ab|-8--8--8--8--8--8--8--8--8--8--8--8--8--8--8--8--------------------------|
Eb|-------------------------------------------------------------------------|


eb|-------------------------------------------------------------------------|
Bb|-------------------------------------------------------------------------|
Gb|-------------------------------------------------------------------------|
Db|-8-8-8-8-8-8-8-8-8-8-8-8-8-8-8-8--6-6-6-6--------------------------------|
Ab|-6-6-6-6-6-6-6-6-6-6-6-6-6-6-6-6--4-4-4-4--------------------------------|
Eb|-------------------------------------------------------------------------|

(Gtr.2)
eb|-------------------------------------------------------------------------|
Bb|-11-11-11-11-11-11-11-11-11-11-11-11-11-11-11-11-------------------------|
Gb|-x--x--x--x--x--x--x--x--x--x--x--x--x--x--x--x--------------------------|
Db|-6--6--6--6--6--6--6--6--6--6--6--6--6--6--6--6--------------------------|
Ab|-------------------------------------------------------------------------|
Eb|-------------------------------------------------------------------------|


eb|-------------------------------------------------------------------------|
Bb|-14-14-14-14-14-14-14-14-14-14-14-14-14-14-14-14-------------------------|
Gb|-x--x--x--x--x--x--x--x--x--x--x--x--x--x--x--x--------------------------|
Db|-11-11-11-11-11-11-11-11-11-11-11-11-11-11-11-11-------------------------|
Ab|-------------------------------------------------------------------------|
Eb|-------------------------------------------------------------------------|


eb|-------------------------------------------------------------------------|
Bb|-11-11-11-11-11-11-11-11-11-11-11-11-11-11-11-11-------------------------|
Gb|-x--x--x--x--x--x--x--x--x--x--x--x--x--x--x--x--------------------------|
Db|-8--8--8--8--8--8--8--8--8--8--8--8--8--8--8--8--------------------------|
Ab|-------------------------------------------------------------------------|
Eb|-------------------------------------------------------------------------|


eb|-------------------------------------------------------------------------|
Bb|-9-9-9---11-11-11--------------------------------------------------------|
Gb|-x-x-x---x--x--x---------------------------------------------------------|
Db|-6-6-6---8--8--8---------------------------------------------------------|
Ab|-------------------------------------------------------------------------|
Eb|-------------------------------------------------------------------------|

(Gtr.1)
eb|-------------------------------------------------------------------------|
Bb|-------------------------------------------------------------------------|
Gb|-------------------------------------------------------------------------|
Db|-11-11-11-11-11-11-11-11-11-11-11-11-11-11-11-11-------------------------|
Ab|-9--9--9--9--9--9--9--9--9--9--9--9--9--9--9--9--------------------------|
Eb|-------------------------------------------------------------------------|


eb|-------------------------------------------------------------------------|
Bb|-------------------------------------------------------------------------|
Gb|-------------------------------------------------------------------------|
Db|-11-11-11-11-11-11-11-11-11-11-11-11-11-11-11-11-------------------------|
Ab|-8--8--8--8--8--8--8--8--8--8--8--8--8--8--8--8--------------------------|
Eb|-------------------------------------------------------------------------|


eb|-------------------------------------------------------------------------|
Bb|-------------------------------------------------------------------------|
Gb|--------------------------------------------4----------------------------|
Db|-8-8-8-8-8-8-8-8-8-8-8-8-8-8-8-8--6-6-6-6---4----------------------------|
Ab|-6-6-6-6-6-6-6-6-6-6-6-6-6-6-6-6--4-4-4-4---2----------------------------|
Eb|-------------------------------------------------------------------------|

(Gtr.2)
eb|-------------------------------------------------------------------------|
Bb|-11-11-11-11-11-11-11-11-11-11-11-11-11-11-11-11-------------------------|
Gb|-x--x--x--x--x--x--x--x--x--x--x--x--x--x--x--x--------------------------|
Db|-6--6--6--6--6--6--6--6--6--6--6--6--6--6--6--6--------------------------|
Ab|-------------------------------------------------------------------------|
Eb|-------------------------------------------------------------------------|


eb|-------------------------------------------------------------------------|
Bb|-14-14-14-14-14-14-14-14-14-14-14-14-14-14-14-14-------------------------|
Gb|-x--x--x--x--x--x--x--x--x--x--x--x--x--x--x--x--------------------------|
Db|-11-11-11-11-11-11-11-11-11-11-11-11-11-11-11-11-------------------------|
Ab|-------------------------------------------------------------------------|
Eb|-------------------------------------------------------------------------|


eb|-------------------------------------------------------------------------|
Bb|-11-11-11-11-11-11-11-11-11-11-11-11-11-11-11-11-------------------------|
Gb|-x--x--x--x--x--x--x--x--x--x--x--x--x--x--x--x--------------------------|
Db|-8--8--8--8--8--8--8--8--8--8--8--8--8--8--8--8--------------------------|
Ab|-------------------------------------------------------------------------|
Eb|-------------------------------------------------------------------------|


eb|-------------------------------------------------------------------------|
Bb|-9-9-9---11-11-11---12---------------------------------------------------|
Gb|-x-x-x---x--x--x----x----------------------------------------------------|
Db|-6-6-6---8--8--8----9----------------------------------------------------|
Ab|-------------------------------------------------------------------------|
Eb|-------------------------------------------------------------------------|

__________________________________________________________________________________
4.

Artist: From Autumn To Ashes
Song: Milligram Smile
Album: The Fiction We Live
Tuning: Standard


Intro(Guitar 1)
E|----------------------------------------------------------------||
B|----------------------------------------------------------------||
G|-9------7------5-------7-7-12--7-7-12--12-7-7-------------------||
D|-x(12x)-x(12x)-x(12x)--x-x--x--x-x--x---x-x-x-------------------||
A|-7------5------3-------5-5-10--5-5-10--10-5-5-------------------||
E|----------------------------------------------------------------||
                           *       *     *

Verse part 1(Guitar 1) (2x)
E|--------------------------------||
B|--------------------------------||
G|-9------7------5------7---------||
D|-x(12x)-x(12x)-x(12x)-x(12x)----||
A|-7------5------3------5---------||
E|--------------------------------||


Verse part 1(Guitar 2) (2x)
E|-------|--------------------------------------------------------||
B|---***-|--------------------------------------------------------||
G|-9-----|-11-----14-14-14/12-12/11----17-17-17/16-16/14----------||
D|-x(12x)|--x(8x)--x--x--x--x--x--x-----x--x--x--x--x--x(2x)------||
A|-7-----|--9-----12-12-12/10-10/-9----15-15-15/14-14/12----------||
E|-------|--------------------------------------------------------||

E|------------------------------------------------||
B|------------------------------------------------||
G|-19-19-19/17-17/16-16-14-14-14/12-12/11---------||
D|--x--x--x--x--x--x--x--x--x--x--x--x--x---------||
A|-17-17-17/15-15/14-14-12-12-12/10-10/-9---------||
E|------------------------------------------------||

***start with this instead of other intro the second time
E|--------------------------------||
B|--------------------------------||
G|-12-----11-11-11-11-11/12-------||
D|--x(8x)--x--x--x--x--x--x-------||
A|-10------9--9--9--9--9/10-------||
E|--------------------------------||

Verse part 2(Guitar 1)
E|----------------------------------------------------------------||
B|----------------------------------------------------------------||
G|-55-------5-5---------------------------------------------------||
D|-55-------5-5------(2x)-22-22222-2-2-2222222--------------------||
A|-33-------3-3-----------22-22222-2-2-2222222(2x)----------------||
E|------------------------00-00000-0-0-0000000--------------------||
                             *****    (*******)shred it
Verse part 2(Guitar 2)
E|----------------------------------------------------------------||
B|----------------------------------------------------------------||
G|-55-55555-5-5-55555---------------------------------------------||
D|-55-55555-5-5-55555(2x)-22-22222-2-2-2222222--------------------||
A|-33-33333-3-3-33333-----22-22222-2-2-2222222(2x)----------------||
E|------------------------00-00000-0-0-0000000--------------------||
      *****     *****        *****    (*******)shred it

Verse part 2 continued(Guitar 1)
E|----------------------------------------------------------------||
B|----------------------------------------------------------------||
G|-55-55555-5-5-55555---------------------------------------------||
D|-55-55555-5-5-55555(2x)-22-22222-2-2-2222222--------------------||
A|-33-33333-3-3-33333-----22-22222-2-2-2222222(2x)----------------||
E|------------------------00-00000-0-0-0000000--------------------||
      *****     *****        *****    (*******)shred it

Verse part 2 continued(Guitar 2)
E|----------------------------------------------------------------||
B|----------------------------------------------------------------||
G|-55-------5-5---------------------------------------------------||
D|-55-------5-5------(2x)-22-22222-2-2-2222222--------------------||
A|-33-------3-3-----------22-22222-2-2-2222222(2x)----------------||
E|------------------------00-00000-0-0-0000000--------------------||
                             *****    (*******)shred it

Pre-chorus(Guitar 1)
E|--------------------------------||
B|--------------------------------||
G|-5------------------------------||
D|-5(15x)-2-----------------------||
A|-3------2(15x)------------------||
E|--------0-----------------------||

Pre-chorus(Guitar 2) (2x)
E|------------------------------------------------||
B|------------------------------------------------||
G|-5-5-5-7-7-7-9-9-9-11-11-11--11/12--------------||
D|-x-x-x-x-x-x-x-x-x--x--x--x---x--x--------------||
A|-3-3-3-5-5-5-7-7-7--9--9--9---9-10--------------||
E|------------------------------------------------||

Pre-chorus continued(Guitar 1) (2x)
E|--------------------------------||
B|--------------------------------||
G|--------------------------------||
D|-2222222-2-2-2-2-2222-----------||
A|-2222222-2-2-2-2-2222-----------||
E|-0000000-0-0-0-0-0000-----------||
   ******* * * * * ****

Pre-chorus continued(Guitar 2) (4x) play very fast
E|------------------------------------------------||
B|-15p13p12-17p13p12-12-13-15-13-12-13------------||
G|------------------------------------------------||
D|------------------------------------------------||
A|------------------------------------------------||
E|------------------------------------------------||

Repeat Pre-chorus

(Guitar 1)play this after second Pre-chorus
E|----------------||
B|----------------||
G|----------------||
D|-2---2---5~-----||
A|-2---2---5~-----||
E|-0---0---3~-----||

Guitar 2 plays last part of Pre-chorus

Chorus(Guitar 1) (2x)
E|----------------------------------------------------------------||
B|----------------------------------------------------------------||
G|-----------------------------7-7-77-7-7----5-5-55-5-5-----------||
D|-2-2-22-2-2----5-5-55-5-5----5-5-55-5-5----5-5-55-5-5-----------||
A|-2-2-22-2-2----5-5-55-5-5----5-5-55-5-5----3-3-33-3-3-----------||
E|-0-0-00-0-0-00-3-3-33-3-3-00------------00----------------------||
       *      **     *      **     *      **     *

Chorus(Guitar 2) (2x)
E|----------------------------------------------------------------||
B|----------------------------------------------------------------||
G|-----------------------------7-7-77-7-7--------0-----0----------||
D|-2-2-22-2-2----5-5-55-5-5----5-5-55-5-5------2-----2---2--------||
A|-2-2-22-2-2----5-5-55-5-5----5-5-55-5-5----3-----3-------3------||
E|-0-0-00-0-0-00-3-3-33-3-3-00------------00----------------------||
       *      **     *      **     *      **

Both Guitars play this after this chorus
E|----------------||
B|----------------||
G|----------------||
D|-2~------22~----||
A|-2~------22~----||
E|-0~------00~----||

Both Guitars play Verse part 1

Bridge(Guitar 1) (3x)
E|-3-3---3-3-----3-3---3-3-----2-2---3-3-3p2---|-------3----------||
B|-3-3---3---3---3-3---3---3---3-3---3-------3-|---------3--------||
G|-0-0---0-----0-0-0---0-----0-2-2---2---------|-----0-----0------||
D|-2-2---2-------0-0---0-----------------------|---2---------2----||
A|-2-2---2-------2-2---2-----------------------|-3-------------3--||
E|-----0---------3-3-3-3-----------0-----------|------------------||
       *             *             *

Bridge(Guitar 2)
E|----------------------------------------------------------------||
B|----------------------------------------------------------------||
G|---------------------------------------------------0-----0------||
D|-------------------------------------------------2-----2---2----||
A|-----------------------------------------------3-----3-------3--||
E|----------------------------------------------------------------||

                                         Play with distortion the
Bridge(Guitar 2) (2x)                    second time
E|-------3-------------3-------2-----3--|-------------------------||
B|-------3-------------3---------3---3--|-------------------------||
G|-------0-------------0-------------2--|-----0-----0-------------||
D|---2----------------------------------|---2-----2---2-----------||
A|-2---------------2--------------------|-3-----3-------3---------||
E|---------------3----------------------|-------------------------||

Repeat Chorus

Outro(Both Guitars)
E|----------------||
B|----------------||
G|----------------||
D|----2~----------||
A|----2~----------||
E|-00-0~----------||
   **
__________________________________________________________________________________
5.
Artist: From Autumn To Ashes
Song: The Second Wrong Makes You Feel Right
Album: The Fiction We Live
Tuning: Standard

I have no idea, sorry about that.
__________________________________________________________________________________
6.

Artist: From Autumn To Ashes
Song: Every Reason To
Album: The Fiction We Live
Tuning: Standard


Gtr. 1
e|------------------|
b|------------------|
g|------------------|
d|-9-(volume swell)-|
a|-7----------------|
E|------------------|
 |                  |
e|------------------|
b|------------------|
g|------------------|
d|------------------|
a|------------------|
E|------------------|

e|--------------------------------------------------|
b|--------------------------------------------------|
g|--------------------------------------------------|
d|-9-99-99--10--9--7-7-9--9-99-99--10-9-7-----------|
a|-7-77-77----------------7-77-77---------10-9-7----|
E|-----------------------------------------------10-|
 |   mm                     mm                      |
e|--------------------------------------------------|
b|--------------------------------------------------|
g|--------------------------------------------------|
d|--------------------------------------------------|
a|--------------------------------------------------|
E|--------------------------------------------------|

e|--------------------------------------------------|
b|--------------------------------------------------|
g|--------------------------------------------------|
d|-5-55-55---6--5--3-3-5--5-55-55---6-5-3-----------|
a|-3-33-33----------------3-33-33----------6-5-3----|
E|------------------------------------------------6-|
 |   mm                     mm                      |
e|--------------------------------------------------|
b|--------------------------------------------------|
g|--------------------------------------------------|
d|--------------------------------------------------|
a|--------------------------------------------------|
E|--------------------------------------------------|

e|--------------------------------------------------|
b|--------------------------------------------------|
g|--------------------------------------------------|
d|-9-99-99--10--9--7-7-9--9-99-99--10-9-7-----------|
a|-7-77-77----------------7-77-77---------10-9-7----|
E|-----------------------------------------------10-|
 |   mm                     mm                      |
e|--------------------------------------------------|
b|--------------------------------------------------|
g|--------------------------------------------------|
d|-9-99-99--10--9--7-7-9--9-99-99--10-9-7-----------|
a|-7-77-77----------------7-77-77---------10-9-7----|
E|-----------------------------------------------10-|
     mm                     mm

e|--------------------------------------------------|
b|--------------------------------------------------|
g|--------------------------------------------------|
d|-5-55-55---6--5--3-3-5--5-55-55---6-5-3-----------|
a|-3-33-33----------------3-33-33----------6-5-3----|
E|------------------------------------------------6-|
 |   mm                     mm                      |
e|--------------------------------------------------|
b|--------------------------------------------------|
g|--------------------------------------------------|
d|-5-55-55--10--9--7-7-9--5-55-55--10-9-7-----------|
a|-3-33-33----------------3-33-33---------10-9-7----|
E|-----------------------------------------------10-|
     mm                     mm

e|--------------------------------------------------|
b|--------------------------------------------------|
g|--------------------------------------------------|
d|-9-99-99--10--9--7-7-9--9-99-99--10-9-7-----------|
a|-7-77-77----------------7-77-77---------10-9-7----|
E|-----------------------------------------------10-|
 |   mm                     mm                      |
e|--------------------------------------------------|
b|--------------------------------------------------|
g|--------------------------------------------------|
d|-9-99-99--10--9--7-7-9--9-99-99--10-9-7-----------|
a|-7-77-77----------------7-77-77---------10-9-7----|
E|-----------------------------------------------10-|
     mm                     mm

e|--------------------------------------------------|
b|--------------------------------------------------|
g|--------------------------------------------------|
d|-5-55-55---6--5--3-3-5--5-55-55---6-5-3-----------|
a|-3-33-33----------------3-33-33----------6-5-3----|
E|------------------------------------------------6-|
 |   mm                     mm                      |
e|--------------------------------------------------|
b|--------------------------------------------------|
g|--------------------------------------------------|
d|-5-55-55--10--9--7-7-9--5-55-55--10-9-7-----------|
a|-3-33-33----------------3-33-33---------10-9-7----|
E|-----------------------------------------------10-|
     mm                     mm

e|----------------------|
b|----------------------|
g|----------------------|
d|-10p9-7-10-9-7h9p7----|
a|-------------------10-|
E|----------------------|
 |
e|----------------------|
b|----------------------|
g|----------------------|
d|----------------------|
a|----------------------|
E|----------------------|

e|----------------------------------------------------------------------------------------------|
b|----------------------------------------------------------------------------------------------|
g|-12-------17-16-11-------17-16-9-------17-16-11------17-16-12------17-16-14-16-17-------17-16-|
d|--x-(x12)--x--x--x-(x12)--x--x-x-(x12)--x--x--x-(x4)--x--x--x-(x4)--x--x--x--x--x-(x12)--x--x-|
a|-10-------15-14--9-------15-14-7-------15-14--9------15-14-10------15-14-12-14-15-------15-14-|
E|----------------------------------------------------------------------------------------------|
 |                                                                                              |
e|----------------------------------------------------------------------------------------------|
b|----------------------------------------------------------------------------------------------|
g|----------------------------------------------------------------------------------------------|
d|-14-------17-16-12-------17-16-10-------17-16-12------17-16-14-----------------14-------17-16-|
a|--x-(x12)--x--x--x-(x12)--x--x--x-(x12)--x--x--x-(x4)--x--x--x-(x4)-------------x-(x12)--x--x-|
E|-12-------15-14-10-------15-14--8-------15-14-10------15-14-12-----------------12-------15-14-|

e|------------------------------------------------------------------------|
b|------------------------------------------------------------------------|
g|-12-------17-16-11-------17-16-9-------17-16-11-------17-16-14-16-17///-|
d|--x-(x12)--x--x--x-(x12)--x--x-x-(x4)---x--x--x-(x4)---x--x--x--x--x----|
a|-10-------15-14--9-------15-14-7-------15-14--9-------15-14-12-14-15///-|
E|------------------------------------------------------------------------|
 |                                                                        |
e|------------------------------------------------------------------------|
b|------------------------------------------------------------------------|
g|------------------------------------------------------------------------|
d|-14-------17-16-12-------17-16-10-------17-16-12------------------------|
a|--x-(x12)--x--x--x-(x12)--x--x--x-(x4)--x--x--x-(x4)--------------------|
E|-12-------15-14-10-------15-14--8-------15-14-10------------------------|

e|------------------------|
b|------------------------|
g|------------------------|
d|------------------------|
a|-10p9-7-10-9----------7-|
E|--------------9h10-10---|
 |                        |
e|------------------------|
b|------------------------|
g|------------------------|
d|------------------------|
a|------------------------|
E|------------------------|

e|------------------------------|
b|------------------------------|
g|------------------------------|
d|----------5-----------------7-|
a|-2--------3--------5--------5-|
E|-0-----------------3----------|
 |                              |
e|------------2-----------------|
b|--------------3---------------|
g|----------------2----2--------|
d|----------0--------0----------|
a|------------------------------|
E|------------------------------|


e|-----------------------|
b|-----------------------|
g|-----------------------|
d|-10-9----10/9----6/7-7-| x4
a|--8-7-----8/7----4/5-5-|
E|-----------------------|
 |                       |
e|-----------------------|
b|-----------------------|
g|-----------------------|
d|-----------------------| x4
a|-----------------------|
E|-----------------------|

e|----------------------|
b|----------------------|
g|----------------------|
d|-10p9-7-10-9-7h9p7----|
a|-------------------10-|
E|----------------------|
 |                      |
e|----------------------|
b|----------------------|
g|----------------------|
d|----------------------|
a|----------------------|
E|----------------------|

e|----------------------------------------------------------------------------------------------|
b|----------------------------------------------------------------------------------------------|
g|-12-------17-16-11-------17-16-9-------17-16-11------17-16-12------17-16-14-16-17-------17-16-|
d|--x-(x12)--x--x--x-(x12)--x--x-x-(x12)--x--x--x-(x4)--x--x--x-(x4)--x--x--x--x--x-(x12)--x--x-|
a|-10-------15-14--9-------15-14-7-------15-14--9------15-14-10------15-14-12-14-15-------15-14-|
E|----------------------------------------------------------------------------------------------|
 |                                                                                              |
e|----------------------------------------------------------------------------------------------|
b|----------------------------------------------------------------------------------------------|
g|----------------------------------------------------------------------------------------------|
d|-14-------17-16-12-------17-16-10-------17-16-12------17-16-14-----------------14-------17-16-|
a|--x-(x12)--x--x--x-(x12)--x--x--x-(x12)--x--x--x-(x4)--x--x--x-(x4)-------------x-(x12)--x--x-|
E|-12-------15-14-10-------15-14--8-------15-14-10------15-14-12-----------------12-------15-14-|


e|------------------------------------------------------------------|
b|------------------------------------------------------------------|
g|-12-------17-16-11-------17-16-9-------17-16-11-------17-16-14-16-|
d|--x-(x12)--x--x--x-(x12)--x--x-x-(x4)---x--x--x-(x4)---x--x--x--x-|
a|-10-------15-14--9-------15-14-7-------15-14--9-------15-14-12-14-|
E|------------------------------------------------------------------|
 |                                                                  |
e|------------------------------------------------------------------|
b|------------------------------------------------------------------|
g|------------------------------------------------------------------|
d|-14-------17-16-12-------17-16-10-------17-16-12------------------|
a|--x-(x12)--x--x--x-(x12)--x--x--x-(x4)--x--x--x-(x4)--------------|
E|-12-------15-14-10-------15-14--8-------15-14-10------------------|

e|------------------------------|
b|------------------------------|
g|------------------------------|
d|----------5-----------------7-|
a|-2--------3--------5--------5-|
E|-0-----------------3----------|
 |                              |
e|------------2-----------------|
b|--------------3---------------|
g|----------------2----2--------|
d|----------0--------0----------|
a|------------------------------|
E|------------------------------|

e|------------------------------|
b|------------------------------|
g|------------------------------|
d|----------5-----------------7-|
a|-2--------3--------5--------5-|
E|-0-----------------3----------|
 |                              |
e|------------2-----------------|
b|--------------3---------------|
g|----------------2----2--------|
d|----------0--------0----------|
a|------------------------------|
E|------------------------------|

e|---------------------|
b|---------------------|
g|---------------------|
d|---------------------| x3
a|-9-x-7-x-9-x-7-x-555-|
E|-0-x-0-x-0-x-0-x-000-|
 | m m m m m m m m mmm |
e|---------------------|
b|---------------------|
g|---------------------|
d|---------------------|
a|---------------------|
E|---------------------|

e|-------------------|
b|-------------------|
g|-------------------|
d|-------------------|
a|-9-x-7-x-9-x-7-x-5-|
E|-0-x-0-x-0-x-0-x-0-|
 | m m m m m m m m m |
e|-------------------|
b|-------------------|
g|-------------------|
d|-------------------|
a|-------------------|
E|-------------------|

e|------------------|
b|------------------|
g|------------------|
d|---(volume swell)-|
a|-2----------------|
E|-0----------------|
 |                  |
e|------------------|
b|------------------|
g|------------------|
d|------------------|
a|------------------|
E|------------------|

e|----------------|
b|----------------|
g|-<5>------------|
d|-<5>------------| (repeat as necessary)
a|----------------|
E|----------------|
 |----------------|
e|----------------|
b|----------------|
g|----------------|
d|-----------5----| (repeat as necessary)
a|2----222---3----|
E|0----000--------|

__________________________________________________________________________________
7.

Artist: From Autumn To Ashes
Song: Autumns Monologue
Album: The Fiction We Live
Tuning: Standard

I only have the chords for this, sorry.

Am			  G
Oh why cant I be what you need
			  F
a new improved version of me

but i'm nothing so good
		G
no i'm nothing
	F				Am
just bones, a lonely ghost burning down songs
				G
of violence of love and of sorrow
				F
i beg for just one more tomorrow

where you hold me down fold me in
 G		       F	  Am
deep deep deep in the heart of your sins

Am   F
C		  G	Am	F
I break in two over you
C	       G
I break in two
		Am	F
And each piece of me dies
C		G	   Am	      F
And only you can give the breath of life
G				Am
But you dont see me, you dont...


Am			          G
here i'm in between darkness and light
                                 F
bleached and blinded by these nights
				G
where im tossing and tortured til dawn
				  Am
by you, visions of you then youre gone
				G
the shock lifts the red from my face
				F
when i hear someone's taking my place
					G
how could love be so thoughtless, so cruel

Am   F
C		  G	Am	F
I break in two over you
C	       G
I break in two
Am	        	F
And each piece of me dies
C		G	   Am	     F
And only you can give the breath of life
C				G
But you dont see me, you dont...


Chorus instrumental - Am,F,C,G (x4) (piano solo thing)


Am   F
C		  G		Am	F
I break in two over you
C	       G
I break in two
Am		F
And each piece of me dies
C		G	  Am	     F
And only you can give the breath of life
C				G
But you dont see me, you dont...

Am F
C           G          Am   F
i break in two over you
C	    G			  Am		G
i break in two over you, over you
			C
i break in two
 G
i would break in two for you
	Am
now you see me
	G
now you don't
	F
now you need me
	Am
now you don't

__________________________________________________________________________________
8.

Artist: From Autumn To Ashes
Song: Alive Out of Habit
Album: The Fiction We Live
Tuning: Standard

Intro
E-------------------------------------------------------|
B-------------------------------------------------------|
G-------------------------------------------------------|
D------12---10-----9-9h10-------12----10----9--10p9-----| x4
A---10---10----10------------10----10----10-------------|
E-0------------------------0----------------------------|

Verse
E----------------------------------------------------------------|
B----------------------------------------------------------------|
G-----------12-12-----11-11---12-12-----12-12-----11-11---12-12--|
D-2-2-2-2----x--x-----x--x-----x--x------x--x-----x--x-----x--x--| x4
A-2-2-2-2---10-10-----9--9----10-10-----10-10-----9--9----10-10--|
E-0-0-0-0---------0-0-------0-------0-0--------0-0------0--------|

Guitar 2 (played second and fourth time on the verse)
E--------15------|
B--12-13---------|
G----------------|
D----------------| x10
A----------------|
E----------------|

Faster Part
E---------------------------|
B---------------------------|
G---------------------------|
D-------44-55-7777--55-44---| x4
A--7777-------------------7-|
E---------------------------|

Verse again

Interlude
E--------------------------------------------------|
B--------------------------------------------------|
G--------------------------------------------------|
D----4-5-----4-5--222-2-2-2-2-2-2-222-2-2-2-2-2-2--| x4
A--7------5-------222-2-2-2-2-2-2-222-2-2-2-2-2-2--|
E-----------------000-0-0-0-0-0-0-000-0-0-0-0-0-0--|

Then
E-------------------------------------------|
B-------------------------------------------|
G-------------------------------------------|
D--222-222-222--------------------2~--------|
A--222-222-222--------------------2~--------|
E--000-000-000--------------------0~--------|

Then
E-----------------------------------------------|
B-----------------------------------------------|
G-----------------------------------------------|
D------5-4-5-7-5------4-5-----4-5---------------| x5
A--7--------------7--------5--------------------|
E-----------------------------------------------|

Then this little riff
E-------------------------------------------|
B-------------------------------------------|
G-------------------------------------------|
D----9--7--9--10--9-------------------------|
A--7----------------------------------------|
E-------------------------------------------|

"shards of glass, skies of gold..."
E------------------------------------------------------------------|
B------------------------------------------------------------------|
G---------12-12-12-12----------12/11-9/11--9/11-11-11--9/11-11-11--|
D---------x--x--x--x-----------x--x--x-x---x-x--x--x---x-x--x--x---| x4
A---------10-10-10-10----------10/9--7/9---7/9--9--9---7/9--9--9---|
E-000-000--------------000-000-------------------------------------|

"think of..."
E----------------------|
B----------------------|
G---------12-12-12-12--|
D---------x--x--x--x---|
A---------10-10-10-10--|
E-000-000--------------|

"me as..."
E----------------------|
B----------------------|
G---------12-12-12-12--|
D---------x--x--x--x---|
A---------10-10-10-10--|
E-000-000--------------|

"i say..."
E----------------------|
B----------------------|
G---------11-11-11-11--|
D---------x--x--x--x---|
A---------9--9--9--9---|
E-000-000--------------|

"goodbye"
E------------------------------------|
B------------------------------------|
G--------9/11-11-11--9/11-11-11------|
D--------x-x--x--x---x-x--x--x-------|
A--------7/9--9--9---7/9--9--9-------|
E------------------------------------|

"strip away..."
E----------------------|
B----------------------|
G---------12-12-12-12--|
D---------x--x--x--x---|
A---------10-10-10-10--|
E-000-000--------------|

"part of me..."
E----------------------|
B----------------------|
G---------12-12-12-12--|
D---------x--x--x--x---|
A---------10-10-10-10--|
E-000-000--------------|

"just as you..."
E----------------------|
B----------------------|
G---------11-11-11-11--|
D---------x--x--x--x---|
A---------9--9--9--9---|
E-000-000--------------|

"consume me..."
E------------------------------------|
B------------------------------------|
G--------9/11-11-11--9/11-11-11------|
D--------x-x--x--x---x-x--x--x-------|
A--------7/9--9--9---7/9--9--9-------|
E------------------------------------|
"broken smile..."
E----------------------|
B----------------------|
G---------12-12-12-12--|
D---------x--x--x--x---|
A---------10-10-10-10--|
E-000-000--------------|

"starless sky..."
E----------------------|
B----------------------|
G---------12-12-12-12--|
D---------x--x--x--x---|
A---------10-10-10-10--|
E-000-000--------------|

"end it all..."
E----------------------|
B----------------------|
G---------11-11-11-11--|
D---------x--x--x--x---|
A---------9--9--9--9---|
E-000-000--------------|

"say good..."
E------------------------------------|
B------------------------------------|
G--------9/11-11-11--9/11-11-11------|
D--------x-x--x--x---x-x--x--x-------|
A--------7/9--9--9---7/9--9--9-------|
E------------------------------------|

"bye"
E------|
B------|
G------|
D-2~---
A-2~---
E-0~---


__________________________________________________________________________________9.
Artist: From Autumn To Ashes
Song: All I Taste Today Is What's Her Name
Album: The Fiction We Live
Tuning: Standard


E|--------------------------------------------------------||
B|--------------------------------------------------------||
G|-----------------7-5------------------------------------||
D|-4-5-7---4-5-4-0----------------------------------------||
A|--------------------------------------------------------||
E|----------------------000000----------------------------||
                        ......


0:06  x5
E|--------------------------------------------------------||
B|--------------------------------------------------------||
G|--------------------------------------------------------||
D|--------5\4-----4p2-2-----5-7----5-5h7-5-0--------------||
A|--------------------------------------------------------||
E|-000000-----000--------00-----00------------------------||
   ......     ...        ..     ..

0:27
E|--------------------------------------------------------||
B|--------------------------------------------------------||
G|--------------------------------------------------------||
D|--------------------------------------------------------||
A|--------------------------------------------------------||
E|-00000-0000-000000-00-00000-00000-000000-00-------------||
   ..... .... ...... .. ..... ..... ...... ..

0:34
E|--------------------------------------------------------||
B|------12------12----------------12------12--------------||
G|------15------15----------------15------15--------------||
D|--------------------------------------------------------||
A|--------------------------------------------------------||
E|-0000----0000----00000-00--0000----0000-----00000-00----||
   ....    ....    ..... ..  ....    ....     ..... ..

0:42
E|-----------------------------||
B|-----------------------------||
G|-----------------------------||
D|---2-----------2-------------||
A|---2-----------2----pick-----||
E|---0-----------0----slide----||


0:56
E|--------------------------------------------------------||
B|--------------------------------------------------------||
G|----------------------------------------5-554-0-000-----||
D|----4h5-55-4-0-0000--0-4h5-55-4-0-0000------------------||x2
A|--------------------------------------------------------||
E|--------------------------------------------------------||


1:50
E|----------------------------------||
B|----------------------------------||
G|----------------------------------||
D|--5-4-0-----5-4-0-----------------||
A|----------------------------------||
E|----------------------------------||


1:54
E|-------------------------------------------------------------||
B|-------------------------------------------------------------||
G|-----------------------------------5-5h7----5-5h7-5-0--------||
D|------5h4-----4p2-2------------------------------------------||x4
A|-------------------------------------------------------------||
E|-0000-----000-------0000--------00-------00------------------||
   ....     ...       ....        ..       ..

2:15
E|--------------------------------------------------------||
B|--------------------------------------------------------||
G|--0-5-0-7--0-5-0-5h7-5-0--------------------------------||
D|--------------------------------------------------------||
A|--------------------------------------------------------||
E|--------------------------------------------------------||


2:44
E|--------------------------------------------------------||
B|--------------------------------------------------------||
G|----------5-4-0------------5-4-7------------------------||
D|---5-4-0-------------5-4-0------------------------------||x2
A|--------------------------------------------------------||
E|--------------------------------------------------------||

3:03
E|--------------------------------------------------------||
B|--------------------------------------------------------||
G|--------------------------------------------------------||
D|--------------------------------------------------------||
A|--------------------------------------------------------||
E|-00000-00000-00000-00-00000-00000-00000-00--------------||
   ..... ..... ..... .. ..... ..... ..... ..

3:11
E|----------------------------------------------||
B|------12------12------------------------------||
G|------15------15------------------------------||
D|----------------------------------------------||x4
A|----------------------------------------------||
E|-0000----0000-----00000-00--------------------||
   ....    ....     ..... ..

Gtr II
E|--------------------------------------------------------||
B|------12----12----12----12------------------------------||
G|---15----15----15----15---------------------------------||
D|--------------------------------------------------------||
A|--------------------------------------------------------||
E|--------------------------------------------------------||


E|--------------------------------------------------------||
B|--------------------------------------------------------||
G|--------------------------------------------------------||
D|--------------------------------------------------------||
A|--------------------------------------------------------||
E|--00000-00000-00-00000-00000-00000-00-------------------||
    ..... ..... .. ..... ..... ..... ..


_________________________________________________________________________________
10.

Artist: From Autumn To Ashes
Song: The Fiction We Live
Album: The Fiction We Live
Tuning: Standard


e|-00000--00000--00000--00000-------------33333--33333--33333--33333-------|
B|-11111--33333--11111--33333-------------33333--33333--33333--33333-------|
G|-22222--22222--22222--22222-------------00000--00000--00000--00000-------|
D|-22222--22222--22222--22222-------------00000--00000--00000--00000-------|
A|-00000--00000--00000--00000-------------22222--22222--22222--22222-------|
E|----------------------------------------33333--33333--33333--33333-------|

e|--11111--11111---11111--11111--11111--33333--33333--33333--33333---------|
B|--11111--11111---11111--11111--11111--33333--33333--33333--33333---------|
G|--22222--22222---22222--22222--22222--00000--00000--00000--00000---------|
D|--33333--33333---33333--33333--33333--00000--00000--00000--00000---------|
A|--33333--33333---33333--33333--33333--22222--22222--22222--22222---------|
E|--11111--11111---11111--11111--11111--33333--33333--33333--33333---------|

e|-00000--00000--00000--00000---------------33333--33333--33333--33333-----|
B|-11111--33333--11111--33333---------------33333--33333--33333--33333-----|
G|-22222--22222--22222--22222---------------00000--00000--00000--00000-----|
D|-22222--22222--22222--22222---------------00000--00000--00000--00000-----|
A|-00000--00000--00000--00000---------------22222--22222--22222--22222-----|
E|------------------------------------------33333--33333--33333--33333-----|


e|-------11111--11111---11111--11111---11111----------33333--33333--33333--|
B|-------11111--11111---11111--11111---11111----------33333--33333--33333--|
G|-------22222--22222---22222--22222---22222----------00000--00000--00000--|
D|-------33333--33333---33333--33333---33333----------00000--00000--00000--|
A|-------33333--33333---33333--33333---33333----------22222--22222--22222--|
E|-------11111--11111---11111--11111---11111----------33333--33333--33333--|


e|-33333------0000--1111--0000-------1111-----0000--1111--0000-------3333--|
B|-33333------1111--1111--1111-------1111-----1111--1111--1111-------3333--|
G|-00000------2222--2222--0000-------0000-----2222--2222--0000-------0000--|
D|-00000------2222--3333--2222-------0000-----2222--3333--2222-------0000--|
A|-22222------0000--3333--3333-------2222-----0000--3333--3333-------2222--|
E|-33333------------1111-------------3333-----------1111-------------3333--|


e|----0000---------1111--0000---1111-------------0000----1111------0000----|
B|----1111---------1111--1111---1111-------------1111----1111------1111----|
G|----2222---------2222--0000---0000-------------2222----2222------0000----|
D|----2222---------3333--2222---0000-------------2222----3333------2222----|
A|----0000---------3333--3333---2222-------------0000----3333------3333----|
E|-----------------1111---------3333---------------------1111--------------|

e|--1111-------0~----------------------------------------------------------|
B|--1111-------1~----------------------------------------------------------|
G|--0000-------2~----------------------------------------------------------|
D|--0000-------2~----------------------------------------------------------|
A|--2222-------0~----------------------------------------------------------|
E|--3333-------------------------------------------------------------------|


__________________________________________________________________________________
11.

Artist: From Autumn To Ashes
Song: I'm the Best at Ruining My Life
Album: The Fiction We Live
Tuning: Drop D

E|----------------------------------------------------------------|
B|---------0----------------0----------------0-------------0------|
G|-----0-----0----------0-----0----------0-----0-------0-----0----|
D|---5---5------5-----7---7-----7-------7-7------7----5-5------5--|
A|-7--------------7-5-------------7-7-5-----------5-7------------7|
D|----------------------------------------------------------------|

(0:13-0:26)
Verse: not the exact number of times, listen to the song for the rhythm
E|--------------------------------|
B|--------------------------------|
G|--------------000000------------|
D|-222222-00000-444444-222222-----|x2
A|-222222-00000-555555-222222-----|
D|-222222-00000--------222222-----|

Guitar 1: (0:26-0:50)

E|----------------------------------------------------------------|
B|---------0----------------0----------------0-------------0------|
G|-----0-----0----------0-----0----------0-----0-------0-----0----|x2
D|---5---5------5-----7---7-----7-------7-7------7----5-5------5--|
A|-7--------------7-5-------------7-7-5-----------5-7------------7|
D|----------------------------------------------------------------|

Guitar 2:(0:26-0:38)
E|------------------|
B|------------------|
G|------------------|
D|-2~~~~--2~~~~~---2|
A|-2~~~~--2~~~~~---2|
D|-2~~~~--2~~~~~---2|

(0:51-1:16)
Chorus Guitar 1: Listen for the rhythm.
E|-----------------------------------------------------------------------|
B|-----------------------------------------------------------------------|
G|-9--9-9-9--11~--11-11-11--11/12-12/14-14-14-14/16-16-16-16/12-12-12-12-|
D|-x--x-x-x---x~---x--x--x---x--x--x--x--x--x--x--x--x--x--x--x--x--x--x-|x4
A|-7--7-7-7---9~---9--9--9---9/10-10/12-12-12-12/14-14-14-14/10-10-10-10-|
D|-----------------------------------------------------------------------|

(0:51-1:16)
Guitar 2 Plays this:
E|-----------------------------------------------------------------------|
B|-----------------------------------------------------------------------|
G|-----------11~--11-11-11--11/12-12/14-14-14-14/16-16-16-16/12-12-12-12-|
D|222222------x~---x--x--x---x--x--x--x--x--x--x--x--x--x--x--x--x--x--x-|x4
A|222222------9~---9--9--9---9/10-10/12-12-12-12/14-14-14-14/10-10-10-10-|
D|222222-----------------------------------------------------------------|

(1:16-1:29)
E|--------------------------------|
B|--------------------------------|
G|--------------000000------------|
D|-222222-00000-444444-222222-----|x2
A|-222222-00000-555555-222222-----|
D|-222222-00000--------222222-----|

Guitar 1:(1:30-1:54
E|----------------------------------------------------------------|
B|---------0----------------0----------------0-------------0------|
G|-----0-----0----------0-----0----------0-----0-------0-----0----|x2
D|---5---5------5-----7---7-----7-------7-7------7----5-5------5--|
A|-7--------------7-5-------------7-7-5-----------5-7------------7|
D|----------------------------------------------------------------|

Guitar 2:(1:30-1:42)
E|------------------|
B|------------------|
G|------------------|
D|-2~~~~--2~~~~~---2|
A|-2~~~~--2~~~~~---2|
D|-2~~~~--2~~~~~---2|

Guitar 1:(1:55-2:19)
E|-----------------------------------------------------------------------|
B|-----------------------------------------------------------------------|
G|-9--9-9-9--11~--11-11-11--11/12-12/14-14-14-14/16-16-16-16/12-12-12-12-|
D|-x--x-x-x---x~---x--x--x---x--x--x--x--x--x--x--x--x--x--x--x--x--x--x-|x4
A|-7--7-7-7---9~---9--9--9---9/10-10/12-12-12-12/14-14-14-14/10-10-10-10-|
D|-----------------------------------------------------------------------|

Guitar 2:(1:55-2:19)
E|-----------------------------------------------------------------------|
B|-----------------------------------------------------------------------|
G|-----------11~--11-11-11--11/12-12/14-14-14-14/16-16-16-16/12-12-12-12-|
D|222222------x~---x--x--x---x--x--x--x--x--x--x--x--x--x--x--x--x--x--x-|x4
A|222222------9~---9--9--9---9/10-10/12-12-12-12/14-14-14-14/10-10-10-10-|
D|222222-----------------------------------------------------------------|

(2:20-2:33)
E|--------------------------------|
B|--------------------------------|
G|--------------000000------------|
D|-222222-00000-444444-222222-----|x2
A|-222222-00000-555555-222222-----|
D|-222222-00000--------222222-----|

(2:34-2:46)
E|------------------|
B|------------------|
G|------------------|
D|-2~~~~--2~~~~~---2|
A|-2~~~~--2~~~~~---2|
D|-2~~~~--2~~~~~---2|

(2:47-3:09)
E|--------------------------------------------------|
B|--------------------------------------------------|
G|--------------------------------------------------|
D|-22-22-2222--00-00-00-00000-00-00-00022222-22-22--|x2
A|-22-22-2222--00-00-00-00000-00-00-00022222-22-22--|
D|-22-22-2222--00-00-00-00000-00-00-00022222-22-22--|
Palm mute all of it, but the second time slowly release the palm mute on the last set of 2s

(3:10-3:31)
E|---------------------------|
B|---------------------------|
G|-9-11-12-14-16-17-19-21----|Play each note a bunch then slide to the next.
D|-x-x---x--x--x--x--x--x----|
A|-7-9--10-12-14-15-17-19----|
D|---------------------------|

Guitar 1:(3:32-3:56)
E|-----------------------------------------------------------------------|
B|-----------------------------------------------------------------------|
G|-9--9-9-9--11~--11-11-11--11/12-12/14-14-14-14/16-16-16-16/12-12-12-12-|
D|-x--x-x-x---x~---x--x--x---x--x--x--x--x--x--x--x--x--x--x--x--x--x--x-|x4
A|-7--7-7-7---9~---9--9--9---9/10-10/12-12-12-12/14-14-14-14/10-10-10-10-|
D|-----------------------------------------------------------------------|

Guitar 2:(3:32-3:56)
E|-----------------------------------------------------------------------|
B|-----------------------------------------------------------------------|
G|-----------11~--11-11-11--11/12-12/14-14-14-14/16-16-16-16/12-12-12-12-|
D|222222------x~---x--x--x---x--x--x--x--x--x--x--x--x--x--x--x--x--x--x-|x4
A|222222------9~---9--9--9---9/10-10/12-12-12-12/14-14-14-14/10-10-10-10-|
D|222222-----------------------------------------------------------------|

(3:57-4:02)
E|------------|
B|------------|
G|------------|
D|-2~~~~--2---|Stop the second note as soon as you play it.
A|-2~~~~--2---|
D|-2~~~~--2---|

(4:08-4:20)
E|--------------------------------|
B|--------------------------------|
G|--------------000000------------|
D|-222222-00000-444444-222222-----|x2
A|-222222-00000-555555-222222-----|
D|-222222-00000--------222222-----|

Ultimate Guitar.com

            
            
Suggest correction
Creating personal tab
Creating personal tab
You can edit any tab online and save it as your Personal.

You can edit, replace or remove any tab part or add personal notes – all changes will be seen only by you.

Personal tabs can be accessed anytime from any device, even offline.
Learn more »
comments
print report bad tab
1 comment total.
0 reply
emokid302 31 Nov 10, 2010 09:51 AM

excellent, great thank you so much, theres a few wrong notes, BUT, its not a major issue because its just little things and you can hear it in the songs, and on Autumn's Monologue and Fiction We Live, its all just chords, and during the break of Autumn's Monologue its just picking the chords, so congrats to you sir, you did very well, and THIS BAND IS INCREDIBLY MISSED. you have made my day

guest
You may want to rate the tab now too:
select rating
Wanna post a correction for this tab? Suggest correction