Oops, an error
Loading. Please wait.

Sugar Wolf tab

version 4
version 4

Whole song

Interactive

1,985 views 1 this week
2 commentsread comments
1 2 3 4 5
1 last vote to show rating
add to favorites
×
Save as Personal and add changes to this tab that will be seen only by you. Learn more ›
×
You can save this tab as Personal to edit and correct it or add notes. All changes will be seen only by you. Learn more »
launch autoscroll
font size
0
reset
how to read this tab
guitar tuner
edit
Autoscroll
slow
fast
+/-
esc
set tempo
stop
Difficulty
-------------------------------------------------------------------------------
                             SUGAR WOLF - From Autumn To Ashes
-------------------------------------------------------------------------------
Tabbed by:BFMVowns
Email:mackgoth@charter.net

Tuning:EADGBe

this is my first tab, so plz rate it, and plz be 4giving if its wrong! i was grndd all 
so i spent about a week doin practically nothing but listening to this song and tryin to 
it out, though, so itd better be rite!

INTRO:play as many times as u need, idk the exact # (im not sure about the rhythm part either...)

guitar 1
e|777-------------578-777-------------578-|
B|---777888555-578-------777888555-578----|
G|----------------------------------------|
D|----------------------------------------|
A|----------------------------------------|
E|----------------------------------------|

then...

guitar 1
e|------|
B|------|
G|9-7-5-|
D|x-x-x-|
A|7-5-3-|
E|------|

guitar 2
e|------|
B|------|
G|9-7-5-|
D|9-7-5-|
A|7-5-3-|
E|------|

Verse

guitar 1
e|-----------------|
B|-----------------|
G|-----------------|
D|99-7-9-7-9-7-910-|
A|77-7-7-7-7-7-7-7-|
E|-----------------|


guitar 2
e|-----------------|
B|-----------------|
G|-----------------|
D|2----------------|
A|2----------------|
E|0----------------|

drum fill, then...

both guitars (at the end of the last 1 of these before the chorus, the tempo slows down, 
it may or may not throw u off a little)
e|---------------------------------------------------------------|
B|---------------------------------------8887-77---------8887-77-|
G|------------------------------5-5557777-------5-5557777--------|
D|99-7-9-7-9-7-910-99-7-9-7-910----------------------------------|
A|77-7-7-7-7-7-7-7-77-7-7-7-7-7----------------------------------|
E|---------------------------------------------------------------|

Chorus

guitar 1
e|---------------------------|
B|---------------------------|
G|------999-777--------------|
D|2-222-xxx-xxx-2-222-555-777|
A|2-222-777-555-2-222-555-777|
E|0-000---------0-000-333-555|
PM  ..            ..

guitar 2
e|---------------------------|
B|---------------------------|
G|---------------------------|
D|2-222-555-777-2-222-555-777|
A|2-222-555-777-2-222-555-777|
E|0-000-333-555-0-000-333-555|
PM  ..            ..

INTRO
VERSE
CHORUS

SOLO
(clean)
e|---10--8p7-7----10--8p7------------------|
B|787---8---8--787---8---8---5-8-7---5-8-7-|
G|-------------------------7-------7-------|
D|-----------------------------------------|x3
A|-----------------------------------------|
E|-----------------------------------------|

(i dont think this is rite, but it doesnt sound bad)
e|------------------------------------------------|
B|------------------------------7---5-8-7---5-8-7-|
G|--------------------------------7-------7-------|
D|--2---2---5---5---7---7--7-77-------------------|
A|-2-2-2-2-5-5-5-5-7-7-7-7-7-77-------------------|
E|0---0---3---3---5---5----5-55-------------------|

This isnt 100%, but its close i think
e|------1010-77-8p7-----|  -1010-14151410-1010h12p10h12-|
B|77-88------------10p8-|  -----------------------------|
G|----------------------|x2-----------------------------|x2
D|----------------------|  -----------------------------|
A|----------------------|  -----------------------------|
E|----------------------|  -----------------------------|

e|8-7-5-------5-7-|
B|------8-7-8-----|
G|----------------|x2 kick in distortion at the end of the second time
D|----------------|
A|----------------|
E|----------------|

e|----10--7b-7787-----------7h8h10-12-10-8-10--------|
B|7-8------------10-7-7h8h10--------------------5-8-7|
G|--------------------------------------------7------|
D|---------------------------------------------------|
A|---------------------------------------------------|
E|---------------------------------------------------|

e|10-8-7-8--10-8-7-8--10-8-7----------7h8h10-12-10-8-10---------|
B|---------------------------10-7h8h10--------------------5-8-7-|
G|------------------------------------------------------7-------|
D|--------------------------------------------------------------|
A|--------------------------------------------------------------|
E|--------------------------------------------------------------|

CHORUS
END ON...
guitar 1
e|--|
B|--|
G|9-|
D|9-|
A|7-|
E|--|

guitar 2
e|--|
B|--|
G|--|
D|2-|
A|2-|
E|0-|


===============================================================================

            
            
Suggest correction
Creating personal tab
Creating personal tab
You can edit any tab online and save it as your Personal.

You can edit, replace or remove any tab part or add personal notes – all changes will be seen only by you.

Personal tabs can be accessed anytime from any device, even offline.
Learn more »
Give kudos to tab author, rate the tab!
1 2 3 4 5
comments
print report bad tab
2 comments total.
0 reply
Guitarist_24 51 Apr 12, 2007 11:30 AM

good job this tab rocks.

0 reply
Phisherman09 10 Jul 22, 2007 06:09 PM

the intro is right on. exactly how he plays it live.

guest
Wanna post a correction for this tab? Suggest correction