Oops, an error
Loading. Please wait.

The After Dinner Payback tab

version 3
version 3

Whole song

Interactive

3,077 views 3 this week
3 commentsread comments
1 2 3 4 5
1 last vote to show rating
add to favorites
×
Save as Personal and add changes to this tab that will be seen only by you. Learn more ›
×
You can save this tab as Personal to edit and correct it or add notes. All changes will be seen only by you. Learn more »
launch autoscroll
font size
0
reset
how to read this tab
guitar tuner
edit
Autoscroll
slow
fast
+/-
esc
set tempo
stop
Author
-----------------------------------------------------------------------------
                        From Autumn to Ashes - The After Dinner Payback
-----------------------------------------------------------------------------
Tabbed by: 2020vision
Email:bluedrgn456@hotmail.com

Tuning: Standard

This is my way of playing FATA's after dinner payback. Yes, Im aware some
parts are incorrect/played differently, but its how i play it, and its still
a lot better than most tabs ive seen on the net. Feel free to add extra notes
for rhythm, like during the verse riffs.

Intro
Guitar 1:
e|---------------------------------------------------------------------------|
B|---------------------------------------------------------------------------|
G|--11-12---11-12—-11-12-12-12—-9--------------------------------------------|
D|---------------------------------------------------------------------------|
A|---------------------------------------------------------------------------|
E|---------------------------------------------------------------------------|
Guitar 2:
e|---------------------------------------------------------------------------|
B|---------------------------------------------------------------------------|
G|---------------------------------------------------------------------------|
D|--2------------------------------------------------------------------------|
A|--2------------------------------------------------------------------------|
E|--0-(let ring)-------------------------------------------------------------|
Verse
Guitar 2:
e|---------------------------------------------------------------------------|
B|---------------------------------------------------------------------------|
G|----------------------------------5-5---5-5--------5-5---5-5---------------|
D|--2-2---2-2--------2-2---2-2-5555-5-5---5-5--------5-5---5-5---------------|
A|--2-2---2-2-222222-2-2---2-2-3333-3-3---3-3-222222-3-3---3-3-222222--------|
E|--0-0---0-0-000000-0-0---0-0----------------000000-----------000000--------|
pm            ......           ....           ......           ......
Guitar 1:(verse background riff)
e|---------------------------------------------------------------------------|
B|--7-8—7-8-7-888---7-8-7-8-7-888----3-5-3-5-3-555---3-5-3-5-3-555-----------|
G|----------------9---------------9----------------5---------------5---------|
D|---------------------------------------------------------------------------|
A|---------------------------------------------------------------------------|
E|---------------------------------------------------------------------------|
Pre-Chorus
Guitar 2:
e|---------------------------------------------------------------------------|
B|---------------------------------------------------------------------------|
G|---------------------------------------------------------------------------|
D|---7p5/4-5-5-5p4-4-5--5----------------------------------------------------|
A|-----------------------7---------------------------------------------------|
E|---------------------------------------------------------------------------|
Next Prechorus Riff, Guitar 1
e|---------------------------------------------------------------------------|
B|---------------------------------------------------------------------------|
G|---7-5-4----7-5-4-0—7-5-4---0000000----------------------------------------|
D|---------5------------------5555555----------------------------------------|
A|---------------------------------------------------------------------------|
E|---------------------------------------------------------------------------|
Chorus (melodic, softer part) (both guitars)
e|---------------------------------------------------------------------------|
B|---------------------------------------------------------------------------|
G|-----4-----4-----4-----4-----4-----4---4-----0-----------------------------|
D|---5---555---5-5---555—--5-5---555---5---555-------------------------------|
A|---------------------------------------------------------------------------|
E|---------------------------------------------------------------------------|


e|---------------------------------------------------------------------------|
B|---------------------------------------------------------------------------|
G|---------------------------------------------------------------------------|
D|---------------------------------------------------------------------------|
A|---------------------------------------------------------------------------|
E|---------------------------------------------------------------------------|


| /  slide up
| \  slide down
| h  hammer-on
| p  pull-off
| ~  vibrato
| +  harmonic
| x  Mute note

            
            
Suggest correction
Creating personal tab
Creating personal tab
You can edit any tab online and save it as your Personal.

You can edit, replace or remove any tab part or add personal notes – all changes will be seen only by you.

Personal tabs can be accessed anytime from any device, even offline.
Learn more »
Give kudos to tab author, rate the tab!
1 2 3 4 5
comments
print report bad tab
3 comments total.
0 reply
f4af100uk 10 Aug 08, 2004 08:00 PM

this tab is uterly crap cause its not even in the right tuning
pitterful
your supposed to b tell othere people how 2 play it as if they were goin 2 do a cover of it
well thanks alot

0 reply
2020vision 2,010 Aug 08, 2004 08:00 PM

ok then, what tuning is it supposed to be in? this is my interpretation of the song anyway, and i figured it out in standard tuning

0 reply
2020vision 2,010 Aug 08, 2004 08:00 PM

i just checked every site out there, every tab except the other one on this site has standard tuning, so whats your tab of it?

guest
You may want to rate the tab now too:
select rating
Wanna post a correction for this tab? Suggest correction