Oops, an error
Loading. Please wait.

The After Dinner Payback tab

version 5
version 5

Whole song

Interactive

74 views 3 this week
no commentswrite comment
1 2 3 4 5
3 more votes to show rating
add to favorites
×
Save as Personal and add changes to this tab that will be seen only by you. Learn more ›
×
You can save this tab as Personal to edit and correct it or add notes. All changes will be seen only by you. Learn more »
launch autoscroll
font size
0
reset
how to read this tab
guitar tuner
edit
Autoscroll
slow
fast
+/-
esc
set tempo
stop
Author
Difficulty
i believe this is mostly correct. ive mentioned some areas where im not sure because i 
cant really hear the
distinct parts of the 2 guitars. also i might be off on the song structure but really its just 2 chords
throughout, E and C

X: palm mute
p: pull off
s: slide


INTRO
G1
E------------------|
B------------------|
G------------------|
D--2----------2----|
A--2----------2----|
E--0----------0----|

G2 4x
E------------------------------------|
B--7p0--8p0-0-7p0-0-8p0-7p0-5p0-0-0--|
G------------------------------------|
D------------------------------------|
A------------------------------------|
E------------------------------------|

G1
E----------------------------------------------------------------------|
B----------------------------------------------------------------------|
G----------------------------------5-5--5-5--55555555--5-5--5-5--------|
D-2-2--2-2---------2-2--2-2--------5-5--5-5--55555555--5-5--5-5--------|
A-2-2--2-2---------2-2--2-2--------3-3--3-3--33333333--3-3--3-3--------|
E-0-0--0-0--00000--0-0--0-0--0000--------------------------------------|
            XXXXX            XXXX
G2 2x
E------------------------------------|
B--7p0--8p0-0-7p0-0-8p0-7p0-5p0-0-0--|
G------------------------------------|
D------------------------------------|
A------------------------------------|
E------------------------------------|

G2 2x (not too sure bout this one)
E------------------------------------|
B--3p0--5p0-0-5s7-0-5p0-3p0-2p0-0-0--|
G------------------------------------|
D------------------------------------|
A------------------------------------|
E------------------------------------|

pre verse
3x
E----------------------------------------|
B----------------------------------------|
G----------------------------------------|
D---7p5-4p0-0-5p0-4p0-0-4p0-5p0-4p0------|
A---------------------------------7p0----|
E----------------------------------------|

Chorus
E----------------------------------------------------------------|
B----------------------------------------------------------------|
G--7--5--4-----------7--5--4----------7--5--4--5-----------------|
D-----------555555-----------777777-------------555555-----------|
A----------------------------------------------------------------|
E----------------------------------------------------------------|

                                                (cant really tell the chord
                                                hes playing here)
E-----------------------------------------------------------------|
B-----------------------------------------------------------------|
G--7--5--4-----------7--5--4----------7--5--4--5-4-4-4-4----------|
D-----------555555-----------777777--------------5-5-5-5----------|
A-----------------------------------------------------------------|
E-----------------------------------------------------------------|
                                                  xxxxxx


not sure if both guitars are playing this or if they are playing some harmony
E------------------------------------------------|
B------------------------------------------------|
G---------4---------4--------4---------4---------|
D--4-5-4-5---4-5-4-5--4-5-4-5---4-5-4-5-5--------|
A------------------------------------------------|
E------------------------------------------------|

E--------------------------------------------|
B--------------------------------------------|
G----------0--------0----------0----------0--|
D--2-4-2-4---2-4-2-4---2-4-2-4-----2-4-2-4---|
A--------------------------------------------|
E--------------------------------------------|

Chorus 1x

intro but slower
E------------------|
B------------------|
G------------------|
D--2----------2----|
A--2----------2----|
E--0----------0----|

G2 4x
E------------------------------------|
B--7p0--8p0-0-7p0-0-8p0-7p0-5p0-0-0--|
G------------------------------------|
D------------------------------------|
A------------------------------------|
E------------------------------------|


1X
E----------------------------------------------------------------------|
B----------------------------------------------------------------------|
G----------------------------------5-5--5-5--55555555--5-5--5-5--------|
D-2-2--2-2---------2-2--2-2--------5-5--5-5--55555555--5-5--5-5--------|
A-2-2--2-2---------2-2--2-2--------3-3--3-3--33333333--3-3--3-3--------|
E-0-0--0-0--00000--0-0--0-0--0000--------------------------------------|
            XXXXX            XXXX
1X
E----------------------------------------------------------------------|
B----------------------------------------------------------------------|
G----------------------------------5-5--5s7-777-5-5--5s7-777-----------|
D-2-2--2-2---------2-2--2-2--------5-5--5s7-777-5-5--5s7-777-----------|
A-2-2--2-2---------2-2--2-2--------3-3--3s5-555-3-3--3s5-555-----------|
E-0-0--0-0--00000--0-0--0-0--0000--------------------------------------|
            XXXXX            XXXX           XXX          XXX


ending outro
E----------------------------------------|
B----------------------------------------|
G----------------------------------------|
D---7p5-4p0-0-5p0-4p0-0-4p0-5p0-4p0------|
A---------------------------------7p0----|
E----------------------------------------|


E------------------|
B------------------|
G------------------|
D--22---------22---|
A--22---------22---|
E--00---------00---|

            
            
Suggest correction
Creating personal tab
Creating personal tab
You can edit any tab online and save it as your Personal.

You can edit, replace or remove any tab part or add personal notes – all changes will be seen only by you.

Personal tabs can be accessed anytime from any device, even offline.
Learn more »
Give kudos to tab author, rate the tab!
1 2 3 4 5
comments
print report bad tab
guest
You may want to rate the tab now too:
select rating
Wanna post a correction for this tab? Suggest correction