Oops, an error
Loading. Please wait.

Listen Up Bass Tab

version 1
version 1

Whole song

Interactive

426 views 1 this week
no commentswrite comment
1 2 3 4 5
please rate
add to favorites
launch autoscroll
font size
0
reset
guitar tuner
Tab Pro tools
  • play this tab
  • loop segment
  • change instrument
  • show fretboard
  • metronome
×
Best way to learn
"Listen Up"
Autoscroll
slow
fast
+/-
esc
set tempo
stop
Contributor
Difficulty
Tuning
intermediate
D A D G B E
-------------------------------------------------------------------------------
			     LISTEN UP – From Behind These Walls
-------------------------------------------------------------------------------
Tabbed by: William.That.Lies
Email: xiblessthefallx@yahoo.com

Tuning: Dropped D (DADG)

This song is 98% correct.


G|-----------------------------------------------------------------------------------|
D|-----------------------------------------------------------------------------------|
A|---6-6-----------------------------------------------------------------------------|
D|-----------------------------------------------------------------------------------|
        Listen up cuz this is not the end, you’re the last thing that crossed my mind


G|------------------------------------------------------------------------------------|
D|------------------------------------------------------------------------------------|
A|---6-6-----------------------------------------6-6-6-6-6-6-6-6-6-6-6-6-6-6-6-6------|
D|------------------------------------------------------------------------------------|
                                              Pm . . . . . . . . . . . . . . . .
       Relationships are based on trust, well I guess this one was based on lies. .


G|--------------------------------------------|
D|---------------------3-3-3-3-3-3-3-3-3-3-3--|
A|--1-1-1-1-1-1-1-1--1------------------------|
D|--------------------------------------------|

G|-------------------------------------------------------------------|
D|--1-1-1-1-1-1-1-1-1-1-1-1-1-1-1-1-1-1-1-1-1-1-1-1-1-1-1-1-1-1-1-1--|
A|-------------------------------------------------------------------|
D|-------------------------------------------------------------------|
                                                     Based on lies. . .

G|----------------------------------------------------------------------------------|
D|--1-1-1-1-1-1-1-1-1-1-1-1-1-1-1-1-1-1-1-3-3-3-3-3-3-3-3-3-3-3-3-3-3-3-3-3-3-3-3---|
A|----------------------------------------------------------------------------------|
D|----------------------------------------------------------------------------------|
                                      Based on lies. . .

G|-----------------------------------------------------------------|
D|-----------------------------------------------------------------|
A|--6---6-6-6-6-6-6-6-6---6-----6/8-8---8-8-8-8-8-8-8-8---8-----8\-|
D|-----------------------------------------------------------------|
    PM  . . . . . . .                   . . . . . . .
   Listen up to the ones you trust,     just the few by your side.


G|-----------------------------------------------------------------|
D|-----------------------------------------------------------------|
A|--3---3-3-3-3-3-3-3-3---3-----3----------------------------------|
D|----------------------------------6---6-6-6-6-6-6-6-6---6-----6--|
    PM  . . . . . . .                   . . . . . . .
        That’s right,     give in,      everything’s gonna be alright


G|-----------------------------------------------------------------|
D|-----------------------------------------------------------------|
A|--6---6-6-6-6-6-6-6-6---6-----6/8-8---8-8-8-8-8-8-8-8---8-----8\-|
D|-----------------------------------------------------------------|
    PM  . . . . . . .                   . . . . . . .
    Oh my god…..(what does this say?)   Now it’s time for me to go

G|-----------------------------------------------------------------|
D|-----------------------------------------------------------------|
A|--3---3-3-3-3-3-3-3-3---3-----3----------------------------------|
D|----------------------------------6---6-6-6-6-6-6-6-6---6-----6--|
    PM  . . . . . . .                   . . . . . . .
         I know          you know       the fights are getting old


G|---------------------------------------------------------------------------|
D|---------------------------------------------------------------------------|
A|---------------------------------------------------------------------------|
D|-1--1--1---------6--6--6---------1010101010101010-8-8-8-8-8-8-8-8----------|
                                  (Strum the 10s and 8s 16 times each)
   This is the     last chance I   have to say to you.


G|---------------------------------------------------------------------------|
D|---------------------------------------------------------------------------|
A|---------------------------------------------------------------------------|
D|-1--1--1---------6--6--6---------1010101010101010-8-8-8-8-8-8-8-8----------|
                                  (Strum the 10s and 8s 16 times each)
So sorry but     I have to go      wash my hands of you.


G|----------------------------------------------------------------------------------|
D|--------------------------------------------3-3-3-3-3-3--3-3-3-3-3-3-3-3-3-3-3-3--|
A|-1-1-1-1-1-1-1-1-1-1-1-1-1-1-1-1-1-1-1-1-1----------------------------------------|
D|----------------------------------------------------------------------------------|


G|-----------------------------------------------------------------|
D|-----------------------------------------------------------------|
A|--6---6-6-6-6-6-6-6-6---6-----6/8-8---8-8-8-8-8-8-8-8---8-----8\-|
D|-----------------------------------------------------------------|
    PM  . . . . . . .                   . . . . . . .
        You say you will never change,  I say that’s too bad


G|-----------------------------------------------------------------|
D|-----------------------------------------------------------------|
A|--3---3-3-3-3-3-3-3-3---3-----3----------------------------------|
D|----------------------------------6---6-6-6-6-6-6-6-6---6-----6--|
    PM  . . . . . . .                   . . . . . . .
        I’m sorry for all the things   that you and I could have had.


G|-----------------------------------------------------------------|
D|-----------------------------------------------------------------|
A|--6---6-6-6-6-6-6-6-6---6-----6/8-8---8-8-8-8-8-8-8-8---8-----8\-|
D|-----------------------------------------------------------------|
    PM  . . . . . . .                   . . . . . . .
But it’s your fault, all the stupid things that you and I’ve done and said


G|-----------------------------------------------------------------|
D|-----------------------------------------------------------------|
A|--3---3-3-3-3-3-3-3-3---3-----3----------------------------------|
D|----------------------------------6---6-6-6-6-6-6-6-6---6-----6--|
    PM  . . . . . . .                   . . . . . . .
        The lies     the cries         It’s no wonder that you are dead.


G|---------------------------------------------------------------------------|
D|---------------------------------------------------------------------------|
A|---------------------------------------------------------------------------|
D|-1--1--1---------6--6--6---------1010101010101010-8-8-8-8-8-8-8-8----------|
                                  (Strum the 10s and 8s 16 times each)
   This is the     last chance I   have to say to you.


G|---------------------------------------------------------------------------|
D|---------------------------------------------------------------------------|
A|---------------------------------------------------------------------------|
D|-1--1--1---------6--6--6---------1010101010101010-8-8-8-8-8-8-8-8----------|
                                  (Strum the 10s and 8s 16 times each)
So sorry but     I have to go      wash my hands of you.


G|----------------------------------------------------------------------------------|
D|--------------------------------------------3-3-3-3-3-3--3-3-3-3-3-3-3-3-3-3-3-3--|
A|-1-1-1-1-1-1-1-1-1-1-1-1-1-1-1-1-1-1-1-1-1----------------------------------------|
D|----------------------------------------------------------------------------------|

It sounds to me like the bass part of this is played by the bass, and the guitar only 
the e and B string.

I’m still working on the next part of this little solo interlude part, if you have any 
let me know.
Now back to the song:

Your honesty is killing me. The page I read, the words that said that you still loved me.
You lied to me and you don’t see the things you said and now your dead, and that’s 
by me.


G|---------------------------------------------------------------------------|
D|---------------------------------------------------------------------------|
A|---------------------------------------------------------------------------|
D|-1--1--1---------6--6--6---------1010101010101010-8-8-8-8-8-8-8-8----------|
                                  (Strum the 10s and 8s 16 times each)
   This is the     last chance I   have to say to you.


G|---------------------------------------------------------------------------|
D|---------------------------------------------------------------------------|
A|---------------------------------------------------------------------------|
D|-1--1--1---------6--6--6---------1010101010101010-8-8-8-8-8-8-8-8----------|
                                  (Strum the 10s and 8s 16 times each)
So sorry but     I have to go      wash my hands of you.


G|---------------------------------------------------------------------------|
D|---------------------------------------------------------------------------|
A|--6-6----------------------------------------------------------------------|
D|---------------------------------------------------------------------------|
         Listen up cuz this is not the end


| /  slide up
| \  slide down
| h  hammer-on
| p  pull-off
| ~  vibrato
| +  harmonic
| pm palm mute
===============================================================================
comments
We did not receive enough feedback on this tab! Please rate:
print report bad tab
1 2 3 4 5
I want to post or [tab]
guest
You may want to rate the tab now too:
select rating
Please do not post tabs as comments. Select "correction" instead!