Oops, an error
Loading. Please wait.

Listen Up Tab

version 1
version 1

Whole song

Interactive

7,296 views 1 this week
7 commentsread comments
1 2 3 4 5
x 9
add to favorites
launch autoscroll
font size
0
reset
how to read this tab
guitar tuner
Autoscroll
slow
fast
+/-
esc
set tempo
stop
Help us to improve Ultimate-Guitar.com Take our survey!
×
From Behind These Walls - Listen Up
Standard Tuning

i havent put the strummin pattern in quite rite but its gd enough. nobody put up a tab 
this so i thought i mite. i know its missing quite a lot but i thought that it might help anyway

INTRO

e|------------------------------|
B|------------------------------|
G|-8--------------8-8-8-8-8-----|
D|-8--------------8-8-8-8-8-----|
A|-6--------------6-6-6-6-6-----|
E|------------------------------|
                  . . . . .

e|-----------------|
B|-----------------|
G|---3-0---1-0-----|
D|-1-----------3---|
A|-----------------|
E|-----------------|

e|-------------------------------| and i didnt quite get that part
B|--1-4---6-4-6-8-8-6------------|
G|-------------------------------|
D|-1-----------------------------|
A|-------------------------------|
E|-------------------------------|


VERSE

e|--------------------------------------------|
B|--------------------------------------------|
G|-8-8-8---10-10-10---5-5-5-------------------|
D|-8-8-8---10-10-10---5-5-5---6-6-6---8-------|
A|-6-6-6---8--8--8----3-3-3---6-6-6---8-------|
E|----------------------------4-4-4---6-------|
   . . .   .  .  .    . . .   . . .   .


CHORUS

e|------------------------------|
B|------------------------------|
G|-8-8-8~---8-8----5-5-5-5------|
D|-8-8-8~---8-8-6~---5-5-5-5-8~-|
A|-6-6-6~---6-6-6~---3-3-3-3-8~-|
E|--------------4~-----------6~-|


REPEAT OF INTRO

e|-----------------|
B|-----------------|
G|---3-0---1-0-----|
D|-1-----------3---|
A|-----------------|
E|-----------------|

e|-------------------------------|
B|--1-4---6-4-6-8-8-6------------|
G|-------------------------------|
D|-1-----------------------------|    sorry!
A|-------------------------------|
E|-------------------------------|

VERSE 2

e|--------------------------------------------|
B|--------------------------------------------|
G|-8-8-8---10-10-10---5-5-5-------------------|
D|-8-8-8---10-10-10---5-5-5---6-6-6---8-------|
A|-6-6-6---8--8--8----3-3-3---6-6-6---8-------|
E|----------------------------4-4-4---6-------|
   . . .   .  .  .    . . .   . . .   .


CHORUS

e|------------------------------|
B|------------------------------|
G|-8-8-8~---8-8----5-5-5-5------|
D|-8-8-8~---8-8-6~---5-5-5-5-8~-|
A|-6-6-6~---6-6-6~---3-3-3-3-8~-|
E|--------------4~-----------6~-|

INTERLUDE

e|----11----11----11----11------|
B|------------------------------|
G|------------------------------|
D|------------------------------|
A|------------------------------|
E|-11----11----11----11---------|

 THEN

e|----15----15----15----15------|
B|------------------------------|
G|------------------------------|
D|------------------------------|
A|------------------------------|
E|-15----15----15----15---------|

THEN


e|----11P10H11P10----------|
B|----------------13P11----|
G|-------------------------|
D|-------------------------|
A|-------------------------|
E|-11----------------------|

CHORUS

e|------------------------------|
B|------------------------------|
G|-8-8-8~---8-8----5-5-5-5------|
D|-8-8-8~---8-8-6~---5-5-5-5-8~-|
A|-6-6-6~---6-6-6~---3-3-3-3-8~-|
E|--------------4~-----------6~-|


I KNOW THIS IS PROBABLY THE WORST TAB ON THIS SITE BUT PLEASE TELL ME HOW TO IMPROVE IT!!!
Suggest correction
comments
print report bad tab
7 comments total. Showing first comments.
+4 reply
dredd12345 10 Apr 06, 2009 07:29 AM

IM a idol of Ronnie Radke!!!!!
THANKS FOR THE TAB

0 reply
thecrimson666 106 Apr 14, 2009 02:30 PM

no probz. if u think its worth completing then i can try

0 reply
thecrimson666 106 Apr 14, 2009 02:35 PM

as in il try to fill in the gaps

guest
You may want to rate the tab now too:
select rating
Wanna post a correction for this tab? Suggest correction