Oops, an error
Loading. Please wait.

Listen Up Tab

version 2
version 2

Whole song

Interactive

4,854 views 3 this week
3 commentsread comments
1 2 3 4 5
excellent!
x 3
add to favorites
launch autoscroll
font size
0
reset
how to read this tab
guitar tuner
Autoscroll
slow
fast
+/-
esc
set tempo
stop
Help us to improve Ultimate-Guitar.com Take our survey!
×
Author
Difficulty
Tuning
intermediate
D A D G B E
-------------------------------------------------------------------------------
                             LISTEN UP – From Behind These Walls
-------------------------------------------------------------------------------
Tabbed by: Ty Smith
Email: adio_slave21@hotmail.com

Tuning: Dropped D (DADGBe)

This song is 98% correct. The only problems there could possibly be is the
solo/interlude part isn’t finished YET and the chorus strumming may not be
right, but I’m 99% sure it is.  Enjoy! Please leave comments, suggestions,
and corrections and rate my tab! Thanks!

e|-----------------------------------------------------------------------------------|
B|-----------------------------------------------------------------------------------|
G|---8-8-----------------------------------------------------------------------------|
D|---8-8-----------------------------------------------------------------------------|
A|---6-6-----------------------------------------------------------------------------|
D|-----------------------------------------------------------------------------------|
        Listen up cuz this is not the end, you’re the last thing that crossed my mind

e|-----------------------------------------------------------------------------------|
B|-----------------------------------------------------------------------------------|
G|---8-8-----------------------------------------8-8-8-8-8-8-8-8-8-8-8-8-8-8-8-8-----|
D|---8-8-----------------------------------------8-8-8-8-8-8-8-8-8-8-8-8-8-8-8-8-----|
A|---6-6-----------------------------------------6-6-6-6-6-6-6-6-6-6-6-6-6-6-6-6-----|
D|-----------------------------------------------------------------------------------|
                                              Pm . . . . . . . . . . . . . . . .
       Relationships are based on trust, well I guess this one was based on lies. . .

e|--------------------------------------------|
B|--------------------------------------------|
G|------3---0---1---0--------3---0---1---0----|
D|--1------------------3-1------------------3-|
A|--------------------------------------------|
D|--------------------------------------------|
                                   Based on lies. . .
e|-------------------------------------------------------------------|
B|------1---4-----6p4-6/8-11/13-11p8-11/13-16p13-11p8-11p8-6h8-6--4--|
G|-------------------------------------------------------------------|
D|--1----------------------------------------------------------------|
A|-------------------------------------------------------------------|
D|-------------------------------------------------------------------|
                                                     Based on lies. . .
e|------6---3---4---3h4p3-------6---3---4---3h4p3-------3-4-6-4-3-------------------|
B|--4---------------------6-4---------------------6-4-6-----------6-4-3-4-6-4---3---|
G|----------------------------------------------------------------------------------|
D|----------------------------------------------------------------------------------|
A|----------------------------------------------------------------------------------|
D|----------------------------------------------------------------------------------|
                                      Based on lies. . .

e|-----------------------------------------------------------------|
B|-----------------------------------------------------------------|
G|--8---8-8-8-8-8-8-8-8---8-----8/1010--1010101010101010--10----10\|
D|--8---8-8-8-8-8-8-8-8---8-----8/1010--1010101010101010--10----10\|
A|--6---6-6-6-6-6-6-6-6---6-----6/8-8---8-8-8-8-8-8-8-8---8-----8\-|
D|-----------------------------------------------------------------|
    PM  . . . . . . .                   . . . . . . .
   Listen up to the ones you trust,     just the few by your side.

e|-----------------------------------------------------------------|
B|-----------------------------------------------------------------|
G|--5---5-5-5-5-5-5-5-5---5-----5----------------------------------|
D|--5---5-5-5-5-5-5-5-5---5-----5---6---6-6-6-6-6-6-6-6---6-----6--|
A|--3---3-3-3-3-3-3-3-3---3-----3---6---6-6-6-6-6-6-6-6---6-----6--|
D|----------------------------------6---6-6-6-6-6-6-6-6---6-----6--|
    PM  . . . . . . .                   . . . . . . .
        That’s right,     give in,      everything’s gonna be alright

e|-----------------------------------------------------------------|
B|-----------------------------------------------------------------|
G|--8---8-8-8-8-8-8-8-8---8-----8/1010--1010101010101010--10----10\|
D|--8---8-8-8-8-8-8-8-8---8-----8/1010--1010101010101010--10----10\|
A|--6---6-6-6-6-6-6-6-6---6-----6/8-8---8-8-8-8-8-8-8-8---8-----8\-|
D|-----------------------------------------------------------------|
    PM  . . . . . . .                   . . . . . . .
    Oh my god…..(what does this say?)   Now it’s time for me to go

e|-----------------------------------------------------------------|
B|-----------------------------------------------------------------|
G|--5---5-5-5-5-5-5-5-5---5-----5----------------------------------|
D|--5---5-5-5-5-5-5-5-5---5-----5---6---6-6-6-6-6-6-6-6---6-----6--|
A|--3---3-3-3-3-3-3-3-3---3-----3---6---6-6-6-6-6-6-6-6---6-----6--|
D|----------------------------------6---6-6-6-6-6-6-6-6---6-----6--|
    PM  . . . . . . .                   . . . . . . .
         I know          you know       the fights are getting old

e|---------------------------------------------------------------------------|
B|---------------------------------------------------------------------------|
G|---------------------------------------------------------------------------|
D|-1--1--1---------6--6--6---------1010101010101010-8-8-8-8-8-8-8-8----------|
A|-1--1--1---------6--6--6---------1010101010101010-8-8-8-8-8-8-8-8----------|
D|-1--1--1---------6--6--6---------1010101010101010-8-8-8-8-8-8-8-8----------|
                                  (Strum the 10s and 8s 16 times each)
   This is the     last chance I   have to say to you.

e|---------------------------------------------------------------------------|
B|---------------------------------------------------------------------------|
G|---------------------------------------------------------------------------|
D|-1--1--1---------6--6--6---------1010101010101010-8-8-8-8-8-8-8-8----------|
A|-1--1--1---------6--6--6---------1010101010101010-8-8-8-8-8-8-8-8----------|
D|-1--1--1---------6--6--6---------1010101010101010-8-8-8-8-8-8-8-8----------|
                                  (Strum the 10s and 8s 16 times each)
So sorry but     I have to go      wash my hands of you.

e|------6---3---4---3h4p3-------6---3---4---3h4p3-------3-4-6-4-3-------------------|
B|--4---------------------6-4---------------------6-4-6-----------6-4-3-4-6-4---3---|
G|----------------------------------------------------------------------------------|
D|----------------------------------------------------------------------------------|
A|----------------------------------------------------------------------------------|
D|----------------------------------------------------------------------------------|

e|-----------------------------------------------------------------|
B|-----------------------------------------------------------------|
G|--8---8-8-8-8-8-8-8-8---8-----8/1010--1010101010101010--10----10\|
D|--8---8-8-8-8-8-8-8-8---8-----8/1010--1010101010101010--10----10\|
A|--6---6-6-6-6-6-6-6-6---6-----6/8-8---8-8-8-8-8-8-8-8---8-----8\-|
D|-----------------------------------------------------------------|
    PM  . . . . . . .                   . . . . . . .
        You say you will never change,  I say that’s too bad

e|-----------------------------------------------------------------|
B|-----------------------------------------------------------------|
G|--5---5-5-5-5-5-5-5-5---5-----5----------------------------------|
D|--5---5-5-5-5-5-5-5-5---5-----5---6---6-6-6-6-6-6-6-6---6-----6--|
A|--3---3-3-3-3-3-3-3-3---3-----3---6---6-6-6-6-6-6-6-6---6-----6--|
D|----------------------------------6---6-6-6-6-6-6-6-6---6-----6--|
    PM  . . . . . . .                   . . . . . . .
        I’m sorry for all the things   that you and I could have had.

e|-----------------------------------------------------------------|
B|-----------------------------------------------------------------|
G|--8---8-8-8-8-8-8-8-8---8-----8/1010--1010101010101010--10----10\|
D|--8---8-8-8-8-8-8-8-8---8-----8/1010--1010101010101010--10----10\|
A|--6---6-6-6-6-6-6-6-6---6-----6/8-8---8-8-8-8-8-8-8-8---8-----8\-|
D|-----------------------------------------------------------------|
    PM  . . . . . . .                   . . . . . . .
But it’s your fault, all the stupid things that you and I’ve done and said

e|-----------------------------------------------------------------|
B|-----------------------------------------------------------------|
G|--5---5-5-5-5-5-5-5-5---5-----5----------------------------------|
D|--5---5-5-5-5-5-5-5-5---5-----5---6---6-6-6-6-6-6-6-6---6-----6--|
A|--3---3-3-3-3-3-3-3-3---3-----3---6---6-6-6-6-6-6-6-6---6-----6--|
D|----------------------------------6---6-6-6-6-6-6-6-6---6-----6--|
    PM  . . . . . . .                   . . . . . . .
        The lies     the cries         It’s no wonder that you are dead.

e|---------------------------------------------------------------------------|
B|---------------------------------------------------------------------------|
G|---------------------------------------------------------------------------|
D|-1--1--1---------6--6--6---------1010101010101010-8-8-8-8-8-8-8-8----------|
A|-1--1--1---------6--6--6---------1010101010101010-8-8-8-8-8-8-8-8----------|
D|-1--1--1---------6--6--6---------1010101010101010-8-8-8-8-8-8-8-8----------|
                                  (Strum the 10s and 8s 16 times each)
   This is the     last chance I   have to say to you.

e|---------------------------------------------------------------------------|
B|---------------------------------------------------------------------------|
G|---------------------------------------------------------------------------|
D|-1--1--1---------6--6--6---------1010101010101010-8-8-8-8-8-8-8-8----------|
A|-1--1--1---------6--6--6---------1010101010101010-8-8-8-8-8-8-8-8----------|
D|-1--1--1---------6--6--6---------1010101010101010-8-8-8-8-8-8-8-8----------|
                                  (Strum the 10s and 8s 16 times each)
So sorry but     I have to go      wash my hands of you.

e|--11---11---11---11---11---11---11---11---15---15---15---15---15---15---15-13-11|
B|------------------------------------------16---16---16---16---16---16---16-13-11|
G|--------------------------------------------------------------------------------|
D|--------------------------------------------------------------------------------|
A|--------------------------------------------------------------------------------|
D|--------------------------------------------------------------------------------|

It sounds to me like the bass part of this is played by the bass, and the guitar only 
the e and B string.

I’m still working on the next part of this little solo interlude part, if you have any 
let me know.
Now back to the song:

Your honesty is killing me. The page I read, the words that said that you still loved me.
You lied to me and you don’t see the things you said and now your dead, and that’s 
by me.

e|---------------------------------------------------------------------------|
B|---------------------------------------------------------------------------|
G|---------------------------------------------------------------------------|
D|-1--1--1---------6--6--6---------1010101010101010-8-8-8-8-8-8-8-8----------|
A|-1--1--1---------6--6--6---------1010101010101010-8-8-8-8-8-8-8-8----------|
D|-1--1--1---------6--6--6---------1010101010101010-8-8-8-8-8-8-8-8----------|
                                  (Strum the 10s and 8s 16 times each)
   This is the     last chance I   have to say to you.

e|---------------------------------------------------------------------------|
B|---------------------------------------------------------------------------|
G|---------------------------------------------------------------------------|
D|-1--1--1---------6--6--6---------1010101010101010-8-8-8-8-8-8-8-8----------|
A|-1--1--1---------6--6--6---------1010101010101010-8-8-8-8-8-8-8-8----------|
D|-1--1--1---------6--6--6---------1010101010101010-8-8-8-8-8-8-8-8----------|
                                  (Strum the 10s and 8s 16 times each)
So sorry but     I have to go      wash my hands of you.

e|---------------------------------------------------------------------------|
B|---------------------------------------------------------------------------|
G|--8-8----------------------------------------------------------------------|
D|--8-8----------------------------------------------------------------------|
A|--6-6----------------------------------------------------------------------|
D|---------------------------------------------------------------------------|
         Listen up cuz this is not the end


| /  slide up
| \  slide down
| h  hammer-on
| p  pull-off
| ~  vibrato
| +  harmonic
| pm palm mute
===============================================================================
Suggest correction
Give kudos to tab author, rate the tab!
1 2 3 4 5
comments
print report bad tab
3 comments total.
0 reply
whisperinthe18 10 wrote on July 18 2011, 05:26 pm

hey dude the band is called falling in reverse...

0 reply
Ty Smith 54 wrote on July 18 2011, 07:29 pm

Thanks man. When I bought it and tabbed it, it was released under the band "From Behind These Walls". Has it been released under the name "Falling in Reverse"?

0 reply
metalhead601 208 wrote on March 14 2012, 09:56 pm

post interlude solo thing you have had PLENTY of time to figure it out...............

guest
You may want to rate the tab now too:
select rating
Please do not post tabs as comments. Select "correction" instead!