Oops, an error
Loading. Please wait.

Dead Baby Kickball bass

version 1
version 1

Whole song

Interactive

1,028 views 3 this week
1 commentread comment
1 2 3 4 5
1 last vote to show rating
add to favorites
×
Save as Personal and add changes to this tab that will be seen only by you. Learn more ›
×
You can save this tab as Personal to edit and correct it or add notes. All changes will be seen only by you. Learn more »
launch autoscroll
font size
0
reset
guitar tuner
edit
Autoscroll
slow
fast
+/-
esc
set tempo
stop
This Song Features Major League Player(MLP)

Im 100% sure this is correct. Enjoy.

intro
G|--------------------------------------------------------------------------------||
D|-----2h4-----2h4----2h4----2h4--------------------------------------------------||
A|-1-11----1-11---1-11---1-11-------5h7----5h7----5h7----5h7----------------------||
D|------------------------------5-55---5-55---5-55---5-55----5555/----------------||

verse x2
G|-------------------------------------------------------------------------------||
D|-------------------------------------------------------------------------------||
A|--------------------------3-3333-----------------------------------------------||
D|-5-5555-0-5-5555--8-88888------------------------------------------------------||

pre chorus x2
G|------------------------------------------------------------------------------------||
D|------------------------------------------------------------------------------------||
A|------------------------------------------------------------------------------------||
D|-555-5/1-----555-5/1-1/5------------------------------------------------------------||

chorus x3
G|-------------------------------||
D|-------------------------------||
A|-------------------------------||
D|-5555-5555-5555-888888-0-0-0-0-||

end of chorus
G|----------------------------------||
D|----------------------------------||
A|----------------------------------||
D|-5555-5555-5555-888888-0-0-0-05/1-||

rap part x4
G|-------------------------||
D|-------------------------||
A|-------------------------||
D|-555-5/1-----555-5/1-1/5-||

ending x3
G|---------------------------------||
D|---------------------------------||
A|---------------------------------||
D|-5-5-5-5-00-5-5-5-000-000-87-0-5-||

last part
G|--------------------------------------||
D|--------------------------------------||
A|--------------------------------------||
D|-5-5-5-5-00-5-5-5-0-0-0-0-0-0-87-0-5~-||
Suggest correction
Creating personal tab
Creating personal tab
You can edit any tab online and save it as your Personal.

You can edit, replace or remove any tab part or add personal notes – all changes will be seen only by you.

Personal tabs can be accessed anytime from any device, even offline.
Learn more »
Give kudos to tab author, rate the tab!
1 2 3 4 5
comments
print report bad tab
1 comment total.
0 reply
drumboy410 31 Jul 24, 2008 03:07 PM

intro is wrong. its really
G |-----------|----------------------
D |--------3--|------------------------
A |-1-11-1----|--------5--------5----------
D |-----------|-5-55-5---5-55-5------------
X4

guest
You may want to rate the tab now too:
select rating
Wanna post a correction for this tab? Suggest correction