Oops, an error
Loading. Please wait.
We have Chord Pro version of Emily.
It's the closest thing you can get to the original song and it has interactive parts. Check out the tab »
×
7,790 views 15 this week
3 commentsread comments
1 2 3 4 5
x 5
add to favorites
×
Save as Personal and add changes to this tab that will be seen only by you. Learn more ›
×
You can save this tab as Personal to edit and correct it or add notes. All changes will be seen only by you. Learn more »
launch autoscroll
font size
0
reset
how to read this tab
guitar tuner
edit
Autoscroll
slow
fast
+/-
esc
set tempo
stop
----------------------------------------------------------------------------
                             Emily - From First to Last
----------------------------------------------------------------------------
Tabbed by:buryme inblack
Email:one-armed.boxer@hotmail.com

Tuning:eBGDAD

Guitar 1: Travis Richter
Guitar 2: Matt Good

=========================================================================
                             Intro
=========================================================================

Guitar 1
e|-----------------------------------------------------------------------|
B|----------0-------------0------------0---------------------------------|
G|-----------------------------------------------------------------------|
D|------5-----5~------5-----5------4-----4-------------------------------|
A|--3-3---3-------7-7---7------5-5---5-----------------------------------|
D|-----------------------------------------------------------------------|

Guitar 2
e|-----------------------------------------------------------------------|
B|----------0-------------0------------0---------------------------------|
G|-----------------------------------------------------------------------|
D|------5-----5~------5-----5------4-----4-------------------------------|
A|--3-3---3-------7-7---7------5-5---5-----------------------------------|
D|-----------------------------------------------------------------------|

Guitar 1
e|-----------------------------------------------------------------------|
B|----------0----12~--------------0--------------------------------------|
G|-------------------12~------------------------9-7-6h7h6----------------|
D|------5-----5~--------------5-----5------5--------------7--------------|
A|--3-3---3---------------7-7---7------4-4---4---------------------------|
D|-----------------------------------------------------------------------|

Guitar 2
e|-----------------------------------------------------------------------|
B|----------0---------------------0-----------0--------------------------|
G|-----------------------------------------------------------------------|
D|------5-----5~--------------5-----5-----5-----5------------------------|
A|--3-3---3---------------7-7---7-----4-4---4----------------------------|
D|-----------------------------------------------------------------------|

Guitar 1
e|-----------------------------------------------------------------------|
B|-----------------------------------------------------------------------|
G|------7-----7-----7h9p7-5-4---7-5-4-5-4-2h4p2--------------------------|
D|--4h6---4h6---4h6-----------5------------------------------------------|
A|-----------------------------------------------------------------------|
D|-----------------------------------------------------------------------|

Guitar 2
e|-----------------------------------------------------------------------|
B|----------0---------------------0---------0----------------------------|
G|-----------------------------------------------------------------------|
D|------5-----5~--------------5---------4-----4--------------------------|
A|--3-3---3---------------7-7---7---5-5---5------------------------------|
D|-----------------------------------------------------------------------|

Guitar 1
e|----------------------------------------------------------------------------------|
B|------------------------888-777-88-101010-888-77----------------------------------|
G|------7-----7-----7h9p7-----------------------------------------------------------|
D|--4h5---4h5---4h5-----------------------------------------------------------------|
A|----------------------------------------------------------------------------------|
D|----------------------------------------------------------------------------------|

Guitar 2
e|-----------------------------------------------------------------------|
B|----------0-------------0-------------0--------------------------------|
G|-----------------------------------------------------------------------|
D|------5-----5~------5-----5~------4-----4~-----------------------------|
A|--3-3---3-------7-7---7-------5-5---5----------------------------------|
D|-----------------------------------------------------------------------|

=========================================================================
                                Verse x4
=========================================================================

Guitar 1
e|-----------------------------------------------------------------------|
B|----------0-----------0------------------------------------------------|
G|-----------------------------------------------------------------------|
D|------5-----5---5-------5----------------------------------------------|
A|--3-3---3-----3---3-3--------------------------------------------------|
D|-----------------------------------------------------------------------|

Guitar 2
e|-----------------------------------------------------------------------|
B|-----------------------------------------------------------------------|
G|--5--------------------------------------------------------------------|
D|--5--------------------------------------------------------------------|
A|--3--------------------------------------------------------------------|
D|-----------------------------------------------------------------------|

Guitar 1
e|-----------------------------------------------------------------------|
B|----------0------------------------------------------------------------|
G|----------------------9-7-6h7p6----------------------------------------|
D|------5-----5~----4-------------7--------------------------------------|
A|--7-7---7-------5---5--------------------------------------------------|
D|-----------------------------------------------------------------------|

Guitar 2
e|-----------------------------------------------------------------------|
B|-----------------------------------------------------------------------|
G|--9-------------7------------------------------------------------------|
D|--9-------------7------------------------------------------------------|
A|--7-------------5------------------------------------------------------|
D|-----------------------------------------------------------------------|

=========================================================================
                                 Chorus
=========================================================================

Guitar 1
e|-----------------------------------------------------------------------|
B|-----------------------------------------------------------------------|
G|--9--7--12-------------------------------------------------------------|
D|--9--7--12-------------------------------------------------------------|
A|--7--5--10-------------------------------------------------------------|
D|-----------------------------------------------------------------------|

Guitar 2
e|-----------------------------------------------------------------------|
B|-----------------------------------------------------------------------|
G|--9--7--12-------------------------------------------------------------|
D|--9--7--12-------------------------------------------------------------|
A|--7--5--10-------------------------------------------------------------|
D|-----------------------------------------------------------------------|

Guitar 1
e|-----------------------------------------------------------------------|
B|-----------------------------------------------------------------------|
G|--9--7--5--9-----------------------------------------------------------|
D|--9--7--5--9-----------------------------------------------------------|
A|--7--5--3--7-----------------------------------------------------------|
D|-----------------------------------------------------------------------|

Guitar 2
e|-----------------------------------------------------------------------|
B|-----------------------------------------------------------------------|
G|--9--7--5--9-----------------------------------------------------------|
D|--9--7--5--9-----------------------------------------------------------|
A|--7--5--3--7-----------------------------------------------------------|
D|-----------------------------------------------------------------------|

========================================================================
                             Breakdown
========================================================================

Guitar 1
e|-----------------------------------------------------------------------|
B|----------0-------------0------------0---------------------------------|
G|-----------------------------------------------------------------------|
D|------5-----5~------5-----5------4-----4-------------------------------|
A|--3-3---3-------7-7---7------5-5---5-----------------------------------|
D|-----------------------------------------------------------------------|

Guitar 2
e|-----------------------------------------------------------------------|
B|----------0-------------0------------0---------------------------------|
G|-----------------------------------------------------------------------|
D|------5-----5~------5-----5------4-----4-------------------------------|
A|--3-3---3-------7-7---7------5-5---5-----------------------------------|
D|-----------------------------------------------------------------------|

Guitar 1
e|-----------------------------------------------------------------------|
B|----------0----12~--------------0--------------------------------------|
G|-------------------12~------------------------9-7-6h7h6----------------|
D|------5-----5~--------------5-----5------5--------------7--------------|
A|--3-3---3---------------7-7---7------4-4---4---------------------------|
D|-----------------------------------------------------------------------|

Guitar 2
e|-----------------------------------------------------------------------|
B|----------0---------------------0-----------0--------------------------|
G|-----------------------------------------------------------------------|
D|------5-----5~--------------5-----5-----5-----5------------------------|
A|--3-3---3---------------7-7---7-----4-4---4----------------------------|
D|-----------------------------------------------------------------------|

========================================================================
                              Verse x4
========================================================================

Guitar 1
e|-----------------------------------------------------------------------|
B|----------0-----------0------------------------------------------------|
G|-----------------------------------------------------------------------|
D|------5-----5---5-------5----------------------------------------------|
A|--3-3---3-----3---3-3--------------------------------------------------|
D|-----------------------------------------------------------------------|

Guitar 2
e|-----------------------------------------------------------------------|
B|-----------------------------------------------------------------------|
G|--5--------------------------------------------------------------------|
D|--5--------------------------------------------------------------------|
A|--3--------------------------------------------------------------------|
D|-----------------------------------------------------------------------|

Guitar 1
e|-----------------------------------------------------------------------|
B|----------0------------------------------------------------------------|
G|----------------------9-7-6h7p6----------------------------------------|
D|------5-----5~----4-------------7--------------------------------------|
A|--7-7---7-------5---5--------------------------------------------------|
D|-----------------------------------------------------------------------|

Guitar 2
e|-----------------------------------------------------------------------|
B|-----------------------------------------------------------------------|
G|--9-------------7------------------------------------------------------|
D|--9-------------7------------------------------------------------------|
A|--7-------------5------------------------------------------------------|
D|-----------------------------------------------------------------------|

========================================================================
                                 Chorus
========================================================================

Guitar 1
e|-----------------------------------------------------------------------|
B|-----------------------------------------------------------------------|
G|--9--7--12-------------------------------------------------------------|
D|--9--7--12-------------------------------------------------------------|
A|--7--5--10-------------------------------------------------------------|
D|-----------------------------------------------------------------------|

Guitar 2
e|-----------------------------------------------------------------------|
B|-----------------------------------------------------------------------|
G|--9--7--12-------------------------------------------------------------|
D|--9--7--12-------------------------------------------------------------|
A|--7--5--10-------------------------------------------------------------|
D|-----------------------------------------------------------------------|

Guitar 1
e|-----------------------------------------------------------------------|
B|-----------------------------------------------------------------------|
G|--9--7--5--9-----------------------------------------------------------|
D|--9--7--5--9-----------------------------------------------------------|
A|--7--5--3--7-----------------------------------------------------------|
D|-----------------------------------------------------------------------|

Guitar 2
e|-----------------------------------------------------------------------|
B|-----------------------------------------------------------------------|
G|--9--7--5--9-----------------------------------------------------------|
D|--9--7--5--9-----------------------------------------------------------|
A|--7--5--3--7-----------------------------------------------------------|
D|-----------------------------------------------------------------------|

========================================================================
                                    Ending
========================================================================

Guitar 1
e|-----------------------------------------------------------------------|
B|----------0---12~------------------------------------------------------|
G|-----------------------------------------------------------------------|
D|------5-----5----------------------------------------------------------|
A|--3-3---3--------------------------------------------------------------|
D|-----------------------------------------------------------------------|

e|-----------------------------------------------------------------------|
B|----------0------------------------------------------------------------|
G|-----------------------------------------------------------------------|
D|------5-----5----------------------------------------------------------|
A|--3-3---3--------------------------------------------------------------|
D|-----------------------------------------------------------------------|


| /  slide up
| \  slide down
| h  hammer-on
| p  pull-off
| ~  vibrato
| +  harmonic
| x  Mute note
=========================================================================

            
            
Suggest correction
Creating personal tab
Creating personal tab
You can edit any tab online and save it as your Personal.

You can edit, replace or remove any tab part or add personal notes – all changes will be seen only by you.

Personal tabs can be accessed anytime from any device, even offline.
Learn more »
comments
print report bad tab
3 comments total.
0 reply
MCRrocks 35 May 29, 2007 12:33 PM

shitty tab btw

+1 reply
To The End 271 Jul 15, 2007 04:26 AM

this ain't that bad, its actually pretty good 4stars from me

0 reply
alkalineweeman 899 Dec 12, 2008 02:52 AM

whats the point in dropping to D for this?

guest
You may want to rate the tab now too:
select rating
Wanna post a correction for this tab? Suggest correction