Oops, an error
Loading. Please wait.

Kiss Me Im Contagious bass

version 3
version 3

Whole song

Interactive

1,541 views 1 this week
2 commentsread comments
1 2 3 4 5
1 last vote to show rating
add to favorites
×
Save as Personal and add changes to this tab that will be seen only by you. Learn more ›
×
You can save this tab as Personal to edit and correct it or add notes. All changes will be seen only by you. Learn more »
launch autoscroll
font size
0
reset
guitar tuner
edit
Autoscroll
slow
fast
+/-
esc
set tempo
stop
Difficulty
intermediate
---------------------------------------------------------------------------
KISS ME, I’M CONTAGIOUS – From First To Last
---------------------------------------------------------------------------

Tabbed By : Bedui
E-mail: bedui_00@hotmail.com

Tuning: Dropped D

Verse (the second, third and fourth time I don’t know the scales, but I play them the 
and it sounds fine, any corrections please E-mail me =])

G|-----------------------------------------------------|
D|-----------------------------------------------------|
A|-----------------------------------------------------|
D|-3--3-3---------15\-------7--7-7-7-7---2--2-2-0h2p0--|

G|-------------------5h7p5-----------------------------|
D|--------------5h7------------------------------------|
A|---------5h7-----------------------------------------|  (x3)
D|-3--3-3-------------------7--7-7-7-7---2--2-2-0h2p0--|

I doubt the next part is a 100% correct, but it sounds nice when played along, again, 
corrections please E-mail me.

G|---------------------------------------------------|
D|---------------------------------------------------|
A|-----------------------------3---------------------|   (x4)
D|-0h2-2-0h2-2-0h2-2-0h2p0h2p0----3---2---7---3-2-0--|

You rest one bar as the guitar plays alone with the drums, and then:

G|--------------------|
D|--------------------|
A|--------------------|   (x2)
D|-3---2---7---3-2-0--|

G|---------------------------------------|
D|---------------------------------------|
A|---------------------------------------|
D|-3---2---7---3-2-0----0-0---0-0---12\--|

G|--------------------------------|
D|--------------------------------|
A|-----------------------------3--|   (x3)
D|-0h2-2-0h2-2-0h2-2-0h2p0h2p0----|

G|----------------|
D|----------------|
A|----------------|
D|-0h2-2-0h2-2-0--|

G|----------------------------------------------|
D|----------------------------------------------|
A|-------------------------------------6-6------|
D|-8--8-8--8-8-8--8-8-8--8-8-8-0-0-3-3-----7-7--|

G|-----------------------------------------------|
D|--------------------10-----10------------------|
A|----------------8-8----8-8------------6-6------|   (x3)
D|-8--8-8--8-8-8----------------0-0-3-3-----7-7--|

G|-------------------------------------|
D|-------------------------------------|
A|-------------------------------------|   (x2)
D|-3-33333--3-33333--7-77777--2-22222--|

G|-------------------------------------|
D|-------------------------------------|
A|----------------------------7-77777--|
D|-3-33333--3-33333--7-77777-----------|

G|----------------------------------------|
D|----------------------------------------|
A|----------------------------------------|
D|-3-33333--3-33333--7-77777--2-2220h2p0--|

G|-----------------------------------------------------|
D|-----------------------------------------------------|
A|-----------------------------------------------------|
D|-3--3-3---------15\-------7--7-7-7-7---2--2-2-0h2p0--|

G|-------------------5h7p5-----------------------------|
D|--------------5h7------------------------------------|
A|---------5h7-----------------------------------------|  (x3)
D|-3--3-3-------------------7--7-7-7-7---2--2-2-0h2p0--|

G|---------------------------------------------------|
D|---------------------------------------------------|
A|-----------------------------3---------------------|   (x4)
D|-0h2-2-0h2-2-0h2-2-0h2p0h2p0----3---2---7---3-2-0--|

You rest one bar as the guitar plays alone with the drums, and then:

G|--------------------|
D|--------------------|
A|--------------------|   (x3)
D|-3---2---7---3-2-0--|

G|---------------------------------|
D|---------------------------------|
A|---------------------------------|   (x4)
D|-0-0-0-0--0-0-12\3--2--7--3-2-0--|

G|-----------------------------------------------------------|
D|-----------------------------------------------------------|
A|-----------------------------3-----------------------------|  (x4)
D|-0h2-2—0h2-2—0h2-2—0h2p0h2p0----0h2-2—0h2-2—0h2-2—0h2p0h2--|

I’m not sure of the last chord, I don’t think this is it, still it sounds similar.

G|-13\--|
D|-12\--|
A|----------|   (x3)
D|----------|

| /  slide up
| \  slide down
| h  hammer-on
| p  pull-off
| ~  vibrato
| +  harmonic
| x  Mute note
===========================================================================

Any comments, requests or corrections, please e-mail me to bedui_00@hotmail.com

            
            
Suggest correction
Creating personal tab
Creating personal tab
You can edit any tab online and save it as your Personal.

You can edit, replace or remove any tab part or add personal notes – all changes will be seen only by you.

Personal tabs can be accessed anytime from any device, even offline.
Learn more »
Give kudos to tab author, rate the tab!
1 2 3 4 5
comments
print report bad tab
2 comments total.
0 reply
synyster.punk 166 Nov 22, 2006 07:16 PM

last chord

G|12/-|
D|13/-|
A|13/-|
D|----|...im pretty sure.

0 reply
nicklopeke 31 Mar 05, 2008 04:27 PM

almost... one fret down.

G|11/-|
D|12/-|
A|12/-|
D|----|

guest
Wanna post a correction for this tab? Suggest correction