Oops, an error
Loading. Please wait.

Kiss Me Im Contagious bass

version 4
version 4

Whole song

Interactive

185 views 3 this week
no commentswrite comment
1 2 3 4 5
3 more votes to show rating
add to favorites
×
Save as Personal and add changes to this tab that will be seen only by you. Learn more ›
×
You can save this tab as Personal to edit and correct it or add notes. All changes will be seen only by you. Learn more »
launch autoscroll
font size
0
reset
guitar tuner
edit
Autoscroll
slow
fast
+/-
esc
set tempo
stop
Author
Difficulty
-------------------------------------|
-------------------------------------|
-------------------------------------|
--3-3-3--12/---7-7-7-7-7--2-2-2-2-2--|

"i break hearts like the west was won"


---------------------------------------------------|
--------------3h5--5h3-----------------------------|
---------3h5------------3h5------------------------|
--3-3-3----------------------7-7-7-7-7--2-2-2-2-2--|

"baby i look like an outlaw..."


repeat throughout verse till


-------------------------------|
-------------------------------|
-------------------------------|
--0-0-0-0--2--0-0-0-0-3-0-0-2--|

"we wont back down..."


-------------------|
-------------------|
-------------------|
--3-2--2/7--3-2-0--|

"bang bang guns go bang"


repeat, just listen to the song and you'll know


-------------------|
-------------------|
-------------------|
--3-2--2/7--3-2-0--|

"we draw to death" (i think thats what he says lol)


pause for a "we draw to death"


then

-------------------|
-------------------|
-------------------|  x3
--3-2--2/7--3-2-0--|

then

--------------------------------------------------------------|
--------------------------------------------------------------|
--------------------------------------------------------------|
--0-0-0-0--2--0-0-0-0-3-0-0-2----0-0-0-0--2--0-0-0-0-3-0-0-2--|


-------------------------------------------------------------|
-------------------------------------------------------------|
-------------------------------------------------------------|
--0-0-0-0--2--0-0-0-0-3-0-0-2----0-0-0-0--2--0-0-------------|

------------------------------------|
------------------------------------|
-----------------------------6-6----| x4
--8-8-8-8-8-8-8-8-8--0-0-2-2-----7--|

"there was a man from way back west..."


-------------------------------------------|
-------------------------------------------|
-------------------------------------------| x4
--3-3-3-3-3-3-3-3-3--7-7-7-7-7--2-2-2-2-2--|

while guitar bit then

-------------------------------------|
-------------------------------------|
-------------------------------------|
--3-3-3--12/---7-7-7-7-7--2-2-2-2-2--|

"i bite it but i dont light it..."

---------------------------------------------------|
--------------3h5--5h3-----------------------------|
---------3h5------------3h5------------------------|
--3-3-3----------------------7-7-7-7-7--2-2-2-2-2--|

repeat till


-------------------|
-------------------|
-------------------|
--3-2--2/7--3-2-0--|

"we wont back down"


-------------------|
-------------------|
-------------------|
--3-2--2/7--3-2-0--|

"bang bang guns go bang"


same as other chorus repeat until


-------------------|
-------------------|
-------------------|
--3-2--2/7--3-2-0--|

"we draw to death"

pause for a "we draw to death"


then

-------------------|
-------------------|
-------------------|
--3-2--2/7--3-2-0--|

"we draw to death"

pause


-------------------|
-------------------|
-------------------|
--3-2--2/7--3-2-0--|

"can i touch your legs"


------------|
------------|
------------|
--0-0-0-0-0-|

"do i make you sweat"

pause

just for the last parts listen to how it goes youll figure it out =]

--------------------------------------------------------------|
--------------------------------------------------------------|
--------------------------------------------------------------|
--0-0-0-0--2--0-0-0-0-3-0-0-2----0-0-0-0--2--0-0-0-0-3-0-0-2--|

------|
------|
------|
--5/--

"can i touch your legs..."

fin =D

i hope thats too confusing i tried to make as less confusing as possible >.<
it sounds pretty good to me but if anyone thinks otherwise (which i know there will be a 
of you bastards) then make your own god dam tab =D

            
            
Suggest correction
Creating personal tab
Creating personal tab
You can edit any tab online and save it as your Personal.

You can edit, replace or remove any tab part or add personal notes – all changes will be seen only by you.

Personal tabs can be accessed anytime from any device, even offline.
Learn more »
Give kudos to tab author, rate the tab!
1 2 3 4 5
comments
print report bad tab
guest
You may want to rate the tab now too:
select rating
Wanna post a correction for this tab? Suggest correction