Oops, an error
Loading. Please wait.

Make War tab

version 1
version 1

Whole song

Interactive

2,614 views 27 this week
no commentswrite comment
1 2 3 4 5
3 more votes to show rating
add to favorites
×
Save as Personal and add changes to this tab that will be seen only by you. Learn more ›
×
You can save this tab as Personal to edit and correct it or add notes. All changes will be seen only by you. Learn more »
launch autoscroll
font size
0
reset
how to read this tab
guitar tuner
edit
Autoscroll
slow
fast
+/-
esc
set tempo
stop
[Make War]
[Music Video]
[From First To Lsst]

Tuning: D A D G B E
Playthrough: https://www.youtube.com/watch?v=S9lbQ02QSKo

[Riff 1] - [00:00] - [00:16] - [x5]
- -----7/12\7-----7/12\7---------------------7/12\7-----7/12\7-----------------
- -8----------8----------8------12-12-13-8----------8----------8------12-12-13-
- ---9----------9----------9/14------------9----------9----------9/14----------
- -----------------------------------------------------------------------------
- -----------------------------------------------------------------------------
- -----------------------------------------------------------------------------

[Riff 2] - [00:05] - [00:16]
- -----------------------------------------------------------------
- -----------------------------------------------------------------
- -5-5-5-5-5-5-5-5-5-5-5-5-5-5-5-5-7-7-7-7-7-7-7-7-7-7-7-7-7-7-7-7-
- -5-5-5-5-5-5-5-5-5-5-5-5-5-5-5-5-7-7-7-7-7-7-7-7-7-7-7-7-7-7-7-7-
- -3-3-3-3-3-3-3-3-3-3-3-3-3-3-3-3-5-5-5-5-5-5-5-5-5-5-5-5-5-5-5-5-
- -----------------------------------------------------------------

- -----------------------------------------------------------------
- -----------------------------------------------------------------
- -5-5-5-5-5-5-5-5-5-5-5-5-5-5-5-5-7-7-7-7-7-7-7-7-7-7-7-7-7-7-7-7-
- -5-5-5-5-5-5-5-5-5-5-5-5-5-5-5-5-7-7-7-7-7-7-7-7-7-7-7-7-7-7-7-7-
- -3-3-3-3-3-3-3-3-3-3-3-3-3-3-3-3-5-5-5-5-5-5-5-5-5-5-5-5-5-5-5-5-
- -----------------------------------------------------------------

[Riff 3a] - [00:16] - [00:49] - [x6]
   T           T           T           T           T           T           T           T           
- -24p15p14h15-19p15p14h15-24p15p14h15-19p15p14h15-24p15p14h15-19p15p14h15-24p15p14h15-19p15p14h15-
- -------------------------------------------------------------------------------------------------
- -------------------------------------------------------------------------------------------------
- -------------------------------------------------------------------------------------------------
- -------------------------------------------------------------------------------------------------
- -------------------------------------------------------------------------------------------------

[Riff 3b] - [00:16] - [00:38] - [x2]
- -----------------------------------------------------------------
- ---------8---------------8---------------8---------------8-------
- -----11------11--------------11------11------11--------------11--
- -14----------------14------------12----------------12------------
- -----------------------------------------------------------------
- -----------------------------------------------------------------

- -----------------------------------------------------------------
- ---------8---------------8---------------10--------------8-------
- -----11------11--------------11------11------11--------------11--
- ---------------------------------------------------12------------
- -10----------------10------------10------------------------------
- -----------------------------------------------------------------

[Riff 4] - [00:49] - [01:12]
- -----------------------------------------------------------------
- -----------------------------------------------------------------
- -5-5-5-5-5-5-5-5-5-5-5-5-5-5-5-5-7-7-7-7-7-7-7-7-7-7-7-7-7-7-7-7-
- -5-5-5-5-5-5-5-5-5-5-5-5-5-5-5-5-7-7-7-7-7-7-7-7-7-7-7-7-7-7-7-7-
- -3-3-3-3-3-3-3-3-3-3-3-3-3-3-3-3-5-5-5-5-5-5-5-5-5-5-5-5-5-5-5-5-
- -----------------------------------------------------------------

- -----------------------------------------------------------------
- -----------------------------------------------------------------
- -5-5-5-5-5-5-5-5-5-5-5-5-5-5-5-5-7-7-7-7-7-7-7-7-7-7-7-7-7-7-7-7-
- -5-5-5-5-5-5-5-5-5-5-5-5-5-5-5-5-7-7-7-7-7-7-7-7-7-7-7-7-7-7-7-7-
- -3-3-3-3-3-3-3-3-3-3-3-3-3-3-3-3-5-5-5-5-5-5-5-5-5-5-5-5-5-5-5-5-
- -----------------------------------------------------------------

- -----------------------------------------------------------------
- -----------------------------0-------------------------------0---
- ---------------------0-----0---0-------------------2p0-----0---0-
- -2-2-2-2-----2-2-2-4---2/5-------0-0-0-0-----0-0-0-----2/5-------
- -2-2-2-2-----2-2-2---------------0-0-0-0-----0-0-0---------------
- -2-2-2-2-----2-2-2---------------0-0-0-0-----0-0-0---------------

- -----------------------------------------------------------------
- -----------------------------------------------------------------
- -5-5-5-5-5-5-5-5-5-5-5-5-5-5-5-5-7-7-7-7-7-7-7-7-7-7-7-7-7-7-7-7-
- -5-5-5-5-5-5-5-5-5-5-5-5-5-5-5-5-7-7-7-7-7-7-7-7-7-7-7-7-7-7-7-7-
- -3-3-3-3-3-3-3-3-3-3-3-3-3-3-3-3-5-5-5-5-5-5-5-5-5-5-5-5-5-5-5-5-
- -----------------------------------------------------------------

[Riff 1] - [00:49] - [01:12] - [x4]
[Na Na Na] - [01:12] - [01:23]
[Riff 3a] - [01:23] - [01:36] - [x2]
[Riff 3b] - [01:23] - [01:36]
[Riff 4] - [01:36] - [01:58]
[Riff 1] - [01:36] - [02:20] - [x8]


[Riff 5, Guitar 1 & 2] - [02:20] - [02:43]
- -----------------------------------------------------------------
- -----------------------------------------------------------------
- -----------------------------------------------------------------
- -2-2-2-----------------------2-2-0-0-0-----------------------0-0-
- -2-2-2-----------------------2-2-0-0-0-----------------------0-0-
- -2-2-2-----------------------2-2-0-0-0-----------------------0-0-
-
- -----------------------------------------------------------------
- -----------------------------------------------------------------
- -----------------------------------------------------------------
- -----0---0-------0---0-------0-------0---0-------0---0-------0---
- -----4-----4---4-------4---4---------4-----4---4-------4---4-----
- -----------------------------------------------------------------


- -----------------------------------------------------------------
- -----------------------------------------------------------------
- -----------------------------------------------------------------
- -5-5-5-----------------------5-5-5-5-5-----------------------0-0-
- -5-5-5-----------------------5-5-5-5-5-----------------------0-0-
- -5-5-5-----------------------5-5-5-5-5-----------------------0-0-
-
- -----------------------------------------------------------------
- -----------------------------------------------------------------
- -----------------------------------------------------------------
- -----0---0-------0---0-------0-------0---0-------0---0-------0---
- -----4-----4---4-------4---4---------4-----4---4-------4---4-----
- -----------------------------------------------------------------


- -----------------------------------------------------------------
- -----------------------------------------------------------------
- -----------------------------------------------------------------
- -2-2-2-----------------------2-2-0-0-0-----------------------0-0-
- -2-2-2-----------------------2-2-0-0-0-----------------------0-0-
- -2-2-2-----------------------2-2-0-0-0-----------------------0-0-
-
- -----------------------------------------------------------------
- -----------------------------------------------------------------
- -----------------------------------------------------------------
- -----0---0-------0---0-------0-------0---0-------0---0-------0---
- -----4-----4---4-------4---4---------4-----4---4-------4---4-----
- -----------------------------------------------------------------


- -----------------------------------------------------------------
- -----------------------------------------------------------------
- -----------------------------------------------------------------
- -5-5-5-----------------------5-5-0-------0-0-0-0-----------------
- -5-5-5-----------------------5-5-0-----0-0-0-0-0-0-0-0-0-0-0-0-0-
- -5-5-5-----------------------5-5-0-----0-0-0-0-0-0-0-0-0-0-0-0-0-
PM                                       .         ...............
- -----------------------------------------------------------------
- -----------------------------------------------------------------
- -----------------------------------------------------------------
- -----0---0-------0---0-------0-------0---0-------0---0-------0---
- -----4-----4---4-------4---4---------4-----4---4-------4---4-----
- -----------------------------------------------------------------


[Riff 6] - [02:43] - [02:54]
- -----------------------------------------------------------------
- -----------------------------------------------------------------
- -----------------4-4-4-4-2-2-2-2-----------------2-2-2-2-0-0-0-0-
- -2-2-2-2-2-2-2-2-2-2-2-2-2-2-2-2-4-4-4-4-4-4-4-4-4-4-4-4-4-4-4-0-
- -3-3-3-3-3-3-3-3-----------------5-5-5-5-5-5-5-5-----------------
- -----------------------------------------------------------------
PM .............................   .............................

- -----------------------------------------------------------------
- -----------------------------------------------------------------
- -----------------4-4-4-4-2-2-2-2-----------------2-2-2-2-0-0-----
- -2-2-2-2-2-2-2-2-2-2-2-2-2-2-2-2-4-4-4-4-4-4-4-4-4-4-4-4-4-4-----
- -3-3-3-3-3-3-3-3-----------------5-5-5-5-5-5-5-5-----------------
- -----------------------------------------------------------------
PM .............................   ...............

[Riff 7a] - [02:54] - [03:16] - [x4]
- -----------------------------------------------------------------
- -----------------------------------------------------------------
- -------------------------------------------------2-2-2-2-4-4-4-4-
- -2-2-2-2-2-2-2-2-4-4-4-4-5-5-5-5-4-4-4-4-4-4-4-4-0-0-0-0-0-0-0-0-
- -3-3-3-3-3-3-3-3-3-3-3-3-3-3-3-3-5-5-5-5-5-5-5-5-----------------
- -----------------------------------------------------------------

[Riff 7b] - [02:54] - [03:16] - [x2]
- -12-12-12-12-12-12-12-12-14-14-14-14-15-15-15-15-14-14-14-14-14-14-14-14-17-17-17-17-19-19-19-19-
- -x--x--x--x--x--x--x--x--x--x--x--x--x--x--x--x--x--x--x--x--x--x--x--x--x--x--x--x--x--x--x--x--
- -9--9--9--9--9--9--9--9--11-11-11-11-12-12-12-12-11-11-11-11-11-11-11-11-14-14-14-14-16-16-16-16-
- -------------------------------------------------------------------------------------------------
- -------------------------------------------------------------------------------------------------
- -------------------------------------------------------------------------------------------------

- -12-12-12-12-12-12-12-12-14-14-14-14-15-15-15-15-14-14-14-14-14-14-14-14-------------------------
- -x--x--x--x--x--x--x--x--x--x--x--x--x--x--x--x--x--x--x--x--x--x--x--x--/15-15-15-15-15-15-15\--
- -9--9--9--9--9--9--9--9--11-11-11-11-12-12-12-12-11-11-11-11-11-11-11-11--x--x--x--x--x--x--x----
- -------------------------------------------------------------------------/12-12-12-12-12-12-12\--
- -------------------------------------------------------------------------------------------------
- -------------------------------------------------------------------------------------------------

[Symbols]

PM... Palm Mute notes with (...) under them
AP... Alternate Pick notes with (...) under them
h     Hammer On
p     Pull Off
[ ]   Harmonic
/     Slide Up
\     Slide Down
x     Dead Note
b     Bend
hb    Hold Bend
pb    Pre-Bend
r     Release Bend
(x )  Play Notes x amount of times
~     Let Ring
\\\   Pick Slide Down
///   Pick Slide Up
/ 3 \ Notes are triplets (3 notes in the space of two)
w\    Whammy Bar Down
w/    Whammy Bar Up
wh    Whammy Bar Hold
T     Right Hand Tap
L     Left Hand Tap

:)

            
            
Suggest correction
Creating personal tab
Creating personal tab
You can edit any tab online and save it as your Personal.

You can edit, replace or remove any tab part or add personal notes – all changes will be seen only by you.

Personal tabs can be accessed anytime from any device, even offline.
Learn more »
Give kudos to tab author, rate the tab!
1 2 3 4 5
comments
print report bad tab
guest
You may want to rate the tab now too:
select rating
Wanna post a correction for this tab? Suggest correction