Oops, an error
Loading. Please wait.

Make War tab

version 2
version 2

Whole song

Interactive

1,564 views 15 this week
no commentswrite comment
1 2 3 4 5
3 more votes to show rating
add to favorites
×
Save as Personal and add changes to this tab that will be seen only by you. Learn more ›
×
You can save this tab as Personal to edit and correct it or add notes. All changes will be seen only by you. Learn more »
launch autoscroll
font size
0
reset
how to read this tab
guitar tuner
edit
Autoscroll
slow
fast
+/-
esc
set tempo
stop
[Intro]
D|-------9/14\9--------9/14\9------------------------------------------------|
A|-10------------10------------10-----14-14-14-------------------------------|
F|----11------------11------------11-----------14----------------------------|
C|---------------------------------------------------------------------------|
G|---------------------------------------------------------------------------|
C|---------------------------------------------------------------------------|

D|-------9/14\9--------9/14\9------------------------------------------------|
A|-10------------10------------10-----14-14-14-------------------------------|
F|----11------------11------------11-----------14----------------------------|
C|---------------------------------------------------------------------------|
G|---------------------------------------------------------------------------|
C|---------------------------------------------------------------------------|

D|-------9/14\9--------9/14\9------------------------------------------------|
A|-10------------10------------10-----14-14-14-------------------------------|
F|----11------------11------------11-----------14----------------------------|
C|---------------------------------------------------------------------------|
G|---------------------------------------------------------------------------|
C|---------------------------------------------------------------------------|

D|-------9/14\9--------9/14\9------------------------------------------------|
A|-10------------10------------10-----14-14-14-------------------------------|
F|----11------------11------------11-----------14----------------------------|
C|---------------------------------------------------------------------------|
G|---------------------------------------------------------------------------|
C|---------------------------------------------------------------------------|

[Verse]
D|-----4-4-5-5-4-4------4-4-5-5-4-4------4-4-5-5-4-------4-4-5-5-4-4---------|
A|-2-2--------------2-2------------------------------------------------------|
F|---------------------------------------------------------------------------|
C|-----------------------------------2-2-------------2-2---------------------|
G|---------------------------------------------------------------------------|
C|---------------------------------------------------------------------------|

D|-----4-4-5-5-4-4------4-4-5-5-4-4------4-4-5-5-4-4-------4-4-5-5-4-4-------|
A|---------------------------------------------------------------------------|
F|-2-2--------------2-2--------------2-2--------------2-2--------------------|
C|---------------------------------------------------------------------------|
G|---------------------------------------------------------------------------|
C|---------------------------------------------------------------------------|

D|-----4-4-5-5-4-4------4-4-5-5-4-4------4-4-5-5-4-------4-4-5-5-4-4---------|
A|-2-2--------------2-2------------------------------------------------------|
F|---------------------------------------------------------------------------|
C|-----------------------------------2-2-------------2-2---------------------|
G|---------------------------------------------------------------------------|
C|---------------------------------------------------------------------------|

D|-----4-4-5-5-4-4------4-4-5-5-4-4------4-4-5-5-4-4-------4-4-5-5-4-4-------|
A|---------------------------------------------------------------------------|
F|-2-2--------------2-2--------------2-2--------------2-2--------------------|
C|---------------------------------------------------------------------------|
G|---------------------------------------------------------------------------|
C|---------------------------------------------------------------------------|

D|------22-22-16-16-17-17-16-16---22-22-16-16-17-17-16-16--------------------|
A|---------------------------------------------------------------------------|
F|---------------------------------------------------------------------------|
C|---------------------------------------------------------------------------|
G|---------------------------------------------------------------------------|
C|---------------------------------------------------------------------------|

D|------22-22-16-16-17-17-16-16---22-22-16-16-17-17-16-16--------------------|
A|---------------------------------------------------------------------------|
F|---------------------------------------------------------------------------|
C|---------------------------------------------------------------------------|
G|---------------------------------------------------------------------------|
C|---------------------------------------------------------------------------|

D|------22-22-16-16-17-17-16-16---22-22-16-16-17-17-16-16--------------------|
A|---------------------------------------------------------------------------|
F|---------------------------------------------------------------------------|
C|---------------------------------------------------------------------------|
G|---------------------------------------------------------------------------|
C|---------------------------------------------------------------------------|

D|------22-22-16-16-17-17-16-16---22-22-16-16-17-17-16-16--------------------|
A|---------------------------------------------------------------------------|
F|---------------------------------------------------------------------------|
C|---------------------------------------------------------------------------|
G|---------------------------------------------------------------------------|
C|---------------------------------------------------------------------------|

[Chorus]
D|-------9/14\9--------9/14\9------------------------------------------------|
A|-10------------10------------10-----14-14-14-------------------------------|
F|----11------------11------------11-----------14----------------------------|
C|---------------------------------------------------------------------------|
G|---------------------------------------------------------------------------|
C|---------------------------------------------------------------------------|

D|-------9/14\9--------9/14\9------------------------------------------------|
A|-10------------10------------10-----14-14-14-------------------------------|
F|----11------------11------------11-----------14----------------------------|
C|---------------------------------------------------------------------------|
G|---------------------------------------------------------------------------|
C|---------------------------------------------------------------------------|

D|-------9/14\9--------9/14\9------------------------------------------------|
A|-10------------10------------10-----14-14-14-------------------------------|
F|----11------------11------------11-----------14----------------------------|
C|---------------------------------------------------------------------------|
G|---------------------------------------------------------------------------|
C|---------------------------------------------------------------------------|

D|-------9/14\9--------9/14\9------------------------------------------------|
A|-10------------10------------10-----14-14-14-------------------------------|
F|----11------------11------------11-----------14----------------------------|
C|---------------------------------------------------------------------------|
G|---------------------------------------------------------------------------|
C|---------------------------------------------------------------------------|

D|---------------------------------------------------------------------------|
A|---------------------------------------------------------------------------|
F|----------------2---2----4---4-------------------4---4----6---6------------|
C|-4-4-4-4--4---6---6----7---7-----2-2-2-2--2-2--7---7----9---9--------------|
G|-4-4-4-4--4----------------------2-2-2-2--2-2------------------------------|
C|-4-4-4-4--4----------------------2-2-2-2--2-2------------------------------|

D|---------------------------------------------------------------------------|
A|---------------------------------------------------------------------------|
F|---------------------------------------------------------------------------|
C|-0-0-0-0-0-0-0-0-0-0-0-0-0-0-0-0--2-2-2-2-2-2-2-2-2-2-2-2-2-2-2-2-2-2-2----|
G|-0-0-0-0-0-0-0-0-0-0-0-0-0-0-0-0--2-2-2-2-2-2-2-2-2-2-2-2-2-2-2-2-2-2-2----|
C|-0-0-0-0-0-0-0-0-0-0-0-0-0-0-0-0--2-2-2-2-2-2-2-2-2-2-2-2-2-2-2-2-2-2-2----|

[Verse 2]
D|-----4-4-5-5-4-4------4-4-5-5-4-4------4-4-5-5-4-------4-4-5-5-4-4---------|
A|-2-2--------------2-2------------------------------------------------------|
F|---------------------------------------------------------------------------|
C|-----------------------------------2-2-------------2-2---------------------|
G|---------------------------------------------------------------------------|
C|---------------------------------------------------------------------------|

D|-----4-4-5-5-4-4------4-4-5-5-4-4------4-4-5-5-4-4-------4-4-5-5-4-4-------|
A|---------------------------------------------------------------------------|
F|-2-2--------------2-2--------------2-2--------------2-2--------------------|
C|---------------------------------------------------------------------------|
G|---------------------------------------------------------------------------|
C|---------------------------------------------------------------------------|

D|-----4-4-5-5-4-4------4-4-5-5-4-4------4-4-5-5-4-------4-4-5-5-4-4---------|
A|-2-2--------------2-2------------------------------------------------------|
F|---------------------------------------------------------------------------|
C|-----------------------------------2-2-------------2-2---------------------|
G|---------------------------------------------------------------------------|
C|---------------------------------------------------------------------------|

D|-----4-4-5-5-4-4------4-4-5-5-4-4------4-4-5-5-4-4-------4-4-5-5-4-4-------|
A|---------------------------------------------------------------------------|
F|-2-2--------------2-2--------------2-2--------------2-2--------------------|
C|---------------------------------------------------------------------------|
G|---------------------------------------------------------------------------|
C|---------------------------------------------------------------------------|

[Chorus]
D|-------9/14\9--------9/14\9------------------------------------------------|
A|-10------------10------------10-----14-14-14-------------------------------|
F|----11------------11------------11-----------14----------------------------|
C|---------------------------------------------------------------------------|
G|---------------------------------------------------------------------------|
C|---------------------------------------------------------------------------|

D|-------9/14\9--------9/14\9------------------------------------------------|
A|-10------------10------------10-----14-14-14-------------------------------|
F|----11------------11------------11-----------14----------------------------|
C|---------------------------------------------------------------------------|
G|---------------------------------------------------------------------------|
C|---------------------------------------------------------------------------|

D|-------9/14\9--------9/14\9------------------------------------------------|
A|-10------------10------------10-----14-14-14-------------------------------|
F|----11------------11------------11-----------14----------------------------|
C|---------------------------------------------------------------------------|
G|---------------------------------------------------------------------------|
C|---------------------------------------------------------------------------|

D|-------9/14\9--------9/14\9------------------------------------------------|
A|-10------------10------------10-----14-14-14-------------------------------|
F|----11------------11------------11-----------14----------------------------|
C|---------------------------------------------------------------------------|
G|---------------------------------------------------------------------------|
C|---------------------------------------------------------------------------|

D|---------------------------------------------------------------------------|
A|---------------------------------------------------------------------------|
F|----------------2---2----4---4-------------------4---4----6---6------------|
C|-4-4-4-4--4---6---6----7---7-----2-2-2-2--2-2--7---7----9---9--------------|
G|-4-4-4-4--4----------------------2-2-2-2--2-2------------------------------|
C|-4-4-4-4--4----------------------2-2-2-2--2-2------------------------------|

D|---------------------------------------------------------------------------|
A|---------------------------------------------------------------------------|
F|---------------------------------------------------------------------------|
C|-0-0-0-0-0-0-0-0-0-0-0-0-0-0-0-0--2-2-2-2-2-2-2-2-2-2-2-2-2-2-2-2-2-2-2----|
G|-0-0-0-0-0-0-0-0-0-0-0-0-0-0-0-0--2-2-2-2-2-2-2-2-2-2-2-2-2-2-2-2-2-2-2----|
C|-0-0-0-0-0-0-0-0-0-0-0-0-0-0-0-0--2-2-2-2-2-2-2-2-2-2-2-2-2-2-2-2-2-2-2----|

[Bridge]
D|-------9/14\9--------9/14\9------------------------------------------------|
A|-10------------10------------10-----14-14-14-------------------------------|
F|----11------------11------------11-----------14----------------------------|
C|---------------------------------------------------------------------------| (Repeat this a bunch)
G|---------------------------------------------------------------------------|
C|---------------------------------------------------------------------------|

[Breakdown]
D|---------------------------------------------------------------------------|
A|---------------------------------------------------------------------------|
F|---------------------------------------------------------------------------|
C|---------------------------------------------------------------------------|
G|-4-4-4---4--2-2-2---2-7-7-7---7--7-7-7---7--4-4-4--4--2-2-2---2--7-7-7-----|
C|-4-4-4---4--2-2-2---2-7-7-7---7--7-7-7---7--4-4-4--4--2-2-2---2--7-7-7-----|

D|---------------------------------------------------------------------------|
A|---------------------------------------------------------------------------|
F|---------------------------------------------------------------------------|
C|---------------------------------------------------------------------------|
G|-7-7-7-7-7-7-7-7-7-7-7-7-7-7-7-7--2-2-2-2-2-2-2-2-2-2-2-2-2-2-2-2-2-2-2----|
C|-7-7-7-7-7-7-7-7-7-7-7-7-7-7-7-7--2-2-2-2-2-2-2-2-2-2-2-2-2-2-2-2-2-2-2----|

D|---------------------------------------------------------------------------|
A|---------------------------------------------------------------------------|
F|---------------------------------------------------------------------------|
C|-7-7-7-7-7-7-7-7-11-11-11-11-9-9-9-9--9-9-9-9-9-9-9-9-9-9-9-7-7-7-7--------|
G|-5-5-5-5-5-5-5-5--5--5--5--5-5-5-5-5--7-7-7-7-7-7-7-7-7-7-7-7-7-7-7--------|
C|---------------------------------------------------------------------------|

D|---------------------------------------------------------------------------|
A|---------------------------------------------------------------------------|
F|---------------------------------------------------------------------------|
C|-7-7-7-7-7-7-7-7-11-11-11-11-9-9-9-9--9-9-9-9-9-9-9-9-9-9-9-7-7-7-7--------|
G|-5-5-5-5-5-5-5-5--5--5--5--5-5-5-5-5--7-7-7-7-7-7-7-7-7-7-7-7-7-7-7--------|
C|---------------------------------------------------------------------------|

[Outro]
D|------------------------------------------------------------------------------------------|
A|------------------------------------------------------------------------------------------|
F|-9-9-9-9-9-9-9-9-13-13-13-13-14-14-14-14-13-13-13-13-13-13-13-13-16-16-16-16-18-18-18-18--|
C|------------------------------------------------------------------------------------------|
G|-7-7-7-7-7-7-7-7-11-11-11-11-12-12-12-12-11-11-11-11-11-11-11-11-14-14-14-14-16-16-16-16--|
C|------------------------------------------------------------------------------------------|

D|------------------------------------------------------------------------------------------|
A|------------------------------------------------------------------------------------------|
F|-9-9-9-9-9-9-9-9-13-13-13-13-14-14-14-14-13-13-13-13-13-13-13-13-21-21-21-21-21-21-21-21--|
C|------------------------------------------------------------------------------------------|
G|-7-7-7-7-7-7-7-7-11-11-11-11-12-12-12-12-11-11-11-11-11-11-11-11-19-19-19-19-19-19-19-19--|
C|------------------------------------------------------------------------------------------|

D|------------------------------------------------------------------------------------------|
A|------------------------------------------------------------------------------------------|
F|-9-9-9-9-9-9-9-9-13-13-13-13-14-14-14-14-13-13-13-13-13-13-13-13-16-16-16-16-18-18-18-18--|
C|------------------------------------------------------------------------------------------|
G|-7-7-7-7-7-7-7-7-11-11-11-11-12-12-12-12-11-11-11-11-11-11-11-11-14-14-14-14-16-16-16-16--|
C|------------------------------------------------------------------------------------------|

D|------------------------------------------------------------------------------------------|
A|------------------------------------------------------------------------------------------|
F|-9-9-9-9-9-9-9-9-13-13-13-13-14-14-14-14-13-13-13-13-13-13-13-13-21-21-21-21-21-21-21-21--|
C|------------------------------------------------------------------------------------------|
G|-7-7-7-7-7-7-7-7-11-11-11-11-12-12-12-12-11-11-11-11-11-11-11-11-19-19-19-19-19-19-19-19--|
C|------------------------------------------------------------------------------------------|


************************************

| /  Slide up
| \  Slide down

************************************
Suggest correction
Creating personal tab
Creating personal tab
You can edit any tab online and save it as your Personal.

You can edit, replace or remove any tab part or add personal notes – all changes will be seen only by you.

Personal tabs can be accessed anytime from any device, even offline.
Learn more »
Give kudos to tab author, rate the tab!
1 2 3 4 5
comments
print report bad tab
guest
You may want to rate the tab now too:
select rating
Wanna post a correction for this tab? Suggest correction