Oops, an error
Loading. Please wait.

My Heart Your Hands tab

version 2
version 2

Whole song

Interactive

5,035 views 1 this week
no commentswrite comment
1 2 3 4 5
x 7
add to favorites
×
Save as Personal and add changes to this tab that will be seen only by you. Learn more ›
×
You can save this tab as Personal to edit and correct it or add notes. All changes will be seen only by you. Learn more »
launch autoscroll
font size
0
reset
how to read this tab
guitar tuner
edit
Autoscroll
slow
fast
+/-
esc
set tempo
stop
Author
Song: My Heart Your Hands
Artist: From First To Last
Album: Aesthetic
Tabbed By: Chelsea

This song is in Drop D. Enjoy.

((((Guitar I))))

Intro A:
|----------------------------------|x4
|----------------------------------|
|-10--10-10--10-10-10--9--9-9--9-9-|
|--8---8--8---8--8--8--8--8-8--8-8-|
|--8---8--8---8--8--8--8--8-8--8-8-|
|----------------------------------|


Intro B:
|----------------------------------|x2----|
|----------------------------------|      |
|-10--10-10--10-10-10--9--9-9--9-9-|      |
|--8---8--8---8--8--8--8--8-8--8-8-|      |
|--8---8--8---8--8--8--8--8-8--8-8-|      |x2
|----------------------------------|      |
                                          |
|----------------------------------|x2----|
|----------------------------------|
|-10--10-10--10-10-10--9--9-9--9-9-|
|--0---0--0---0--0--0--0--0-0--0-0-|
|--0---0--0---0--0--0--0--0-0--0-0-|
|----------------------------------|


Verse A:

|---------------------------------------------------------------|---|
|---------------------------------------------------------------|   |
|---------------------------------------------------------------|   |
|-8---------------8---------------8---------------8-------------|   |
|-8---8-8-8-8-8---8---8-8-8-8-8---8---8-8-8-8-8---8---8-8-8-8-8-|   |x2
|-8---8-8-8-8-8---8---8-8-8-8-8---8---8-8-8-8-8---8---8-8-8-8-8-|   |
      PM.......       .........       .........       .........     |
                                                                    |
|---------------------------------------------------------------|---|   
|---------------------------------------------------------------|
|---------------------------------------------------------------|
|--0---------------0---------------0---------------0------------|
|--0--0-0-0-0-0----0--0-0-0-0-0----0--0-0-0-0-0----0--0-0-0-0-0-|
|--0--0-0-0-0-0----0--0-0-0-0-0----0--0-0-0-0-0----0--0-0-0-0-0-|
      PM.......       .........       .........       .........



Chorus A:
|---------------------------------------------------------|
|---------------------------------------------------------|
|---------------------------------------------------------|
|-5--5--5-5-5-5--5-5-5-5/--7---8--8--8-8-8-8--8-8-8-8--8--|
|-5--5--5-5-5-5--5-5-5-5---7---8--8--8-8-8-8--8-8-8-8--8--|
|-5--5--5-5-5-5--5-5-5-5/--7---8--8--8-8-8-8--8-8-8-8--8--|

|-----------------------------------------------------------------|
|-----------------------------------------------------------------|
|-----------------------------------------------------------------|
|--0--0---0-0-0-0--0--0-0-0-0-0-0--0--0-0-0-0-0-0--0--0-0-0-0-0-0-|
|--0--0---0-0-0-0--0--0-0-0-0-0-0--0--0-0-0-0-0-0--0--0-0-0-0-0-0-|
|--0--0---0-0-0-0--0--0-0-0-0-0-0--0--0-0-0-0-0-0--0--0-0-0-0-0-0-|


Chorus B:                                       PM.....
|---------------------------------------------------------------|
|---------------------------------------------------------------|
|---------------------------------------------------------------|
|-5--5--5-5-5-5--5-5-5-5/--7---8--8--8-8-8-8-0--0--0--0---8-----|
|-5--5--5-5-5-5--5-5-5-5---7---8--8--8-8-8-8-0--0--0--0---8\----|
|-5--5--5-5-5-5--5-5-5-5/--7---8--8--8-8-8-8-0--0--0--0---8-----|

Chorus C:
|-------------------------------|
|-------------------5-----5-----|
|-------------------8-----8-----|
|-------0-----------------------|
|-0-0-0-0--0-0-0-0--------------|
|-0-0-0-0--0-0-0-0--------------|
    PM...    .......



**Chorus A:
**Chorus B:




Breakdown A:
|----------------------------------------------------------------|x2
|----------------------------------------------------------------|
|----------------------------------------------------------------|
|----------------------------------------------------------------|
|-8-8-8-8-8-8-8-8-8-8-8-8-8-8-8-8-0-0-0-0-0-0-0-0-0-0-0-0-0-0-0-0|
|-8-8-8-8-8-8-8-8-8-8-8-8-8-8-8-8-0-0-0-0-0-0-0-0-0-0-0-0-0-0-0-0|
  PM.............................................................

|-----------------------------------------------------------------------------|
|-----------------------------------------------------------------------------|
|-----------------------------------------------------------------------------|
|--------------------------------------------------------0--0-0-0-0-0-0-0-0-0-|
|--8-8--8--8-8--8--8--8-8-8-8-8-8-8-8-8--0-0--0--0-0--0--0--0-0-0-0-0-0-0-0-0-|
|--8-8--8--8-8--8--8--8-8-8-8-8-8-8-8-8--0-0--0--0-0--0--0--0-0-0-0-0-0-0-0-0-|
   PM..................................................



**Intro B


Verse B:
|-----------------------------------------------------------------|x4
|-----------------------------------------------------------------|
|-----------------------------------------------------------------|
|-8---8-8---8---8-8---8-8---8---8-0---0-0---0---0-0---0-0---0---0-|
|-8---8-8---8---8-8---8-8---8---8-0---0-0---0---0-0---0-0---0---0-|
|-8---8-8---8---8-8---8-8---8---8-0---0-0---0---0-0---0-0---0---0-|


**Chorus A
**Chorus B
**Chorus C x4
**Chorus A
**Chorus B


Breakdown B:
|-----------|
|-----------|
|-----------|
|-----------|---rest
|-0-0-0-0-0-|
|-0-0-0-0-0-|
  PM.......
  
|-------------------------------|x2
|-------------------------------|
|-------------------------------|
|-------------------------------|
|-8-8-8-8-8-----------0-0-0-0-0-|
|-8-8-8-8-8-----------0-0-0-0-0-|
    PM.......         PM.......

|----------------|x4
|----------------|
|----------------|
|-8~~--------0~~-|
|-8~~--------0~~-|
|-8~~--------0~~-|

Ending:
|-------------------------------------------------|
|-------------------------------------------------|
|-10-10-10-10-------------------------14-14-14-14-|
|--8--8--8--8-12-12-12-12--8--8--8--8--x--x--x--x-|
|--8--8--8--8-12-12-12-12--8--8--8--8-12-12-12-12-|
|--------------------------8--8--8--8-------------|--|
                                                     | 4x
|---------------------------------|                  |
|---------------------------------|------------------|
|---------------------------------|
|-0-0-0-0-0-0-0-0-0-0-0-0-0-0-0-0-|
|-0-0-0-0-0-0-0-0-0-0-0-0-0-0-0-0-|
|-0-0-0-0-0-0-0-0-0-0-0-0-0-0-0-0-|

|-------------------------------------------------------------------------------------------------|x2
|-------------------------------------------------------------------------------------------------|
|-------------------------------------------------------------------------------------------------|
|--8--8--8--8--8--8--8--8--8--8--8--8--8--8--8--8--0--0--0--0--0--0--0--0--0--0--0--0--0--0--0--0-|
|--8--8--8--8--8--8--8--8--8--8--8--8--8--8--8--8--0--0--0--0--0--0--0--0--0--0--0--0--0--0--0--0-|
|--8--8--8--8--8--8--8--8--8--8--8--8--8--8--8--8--0--0--0--0--0--0--0--0--0--0--0--0--0--0--0--0-|


|--------------------------------------------------------------------------------------|
|--------------------------------------------------------------------------------------|
|--------------------------------------------------------------------------------------|
|--8--8----8--8----8--8----8--8----8--8----8--0--0----0--0----0--0----0--0----0--0--0--|
|--8--8----8--8----8--8----8--8----8--8----8--0--0----0--0----0--0----0--0----0--0--0--|
|--8--8-x--8--8-x--8--8-x--8--8-x--8--8-x--8--0--0-x--0--0-x--0--0-x--0--0-x--0--0--0--|

|-------------------------------------------------------------------------------------------|
|-------------------------------------------------------------------------------------------|
|-------------------------------------------------------------------------------------------|
|--8--8----8--8----8--8----8--8----8--8----8--0--0----0--0----0--0----0--0----0-0--0-0--0---|
|--8--8----8--8----8--8----8--8----8--8----8--0--0----0--0----0--0----0--0----0-0--0-0--0---|
|--8--8-x--8--8-x--8--8-x--8--8-x--8--8-x--8--0--0-x--0--0-x--0--0-x--0--0-x--0-0--0-0--0---|
                                                                                   PM....



((((Guitar II))))



Intro:
|---------------------------------------|
|---------------------------------------|
|----------------------14--14-14--14-14-|
|--8---8--8---8--8--8---x---x--x---x--x-|
|--8---8--8---8--8--8--12--12-12--12-12-|
|--8---8--8---8--8--8-------------------|

|----------------------------------|
|----------------------------------|
|----------------------7--7-7--7-7-|
|--0---0--0---0--0--0--x--x-x--x-x-|
|--0---0--0---0--0--0--5--5-5--5-5-|
|--0---0--0---0--0--0--------------|


Verse A:
|-----------------------------------------------------------------|
|-6p5-8p5-6p5-8p5-6p5-8p5-6p5-8p5-6p5-8p5-6p5-8p5-6p5-8p5-6p5-8p5-|
|-----------------------------------------------------------------|
|-----------------------------------------------------------------|
|-----------------------------------------------------------------|
|-----------------------------------------------------------------|

|-/5--------------/5--------------/5--------------/5--------------|
|-----8-8-6-6-5-5-----8-8-6-6-5-5-----8-8-6-6-5-5-----8-8-6-6-5-5-|
|-----------------------------------------------------------------|
|-----------------------------------------------------------------|
|-----------------------------------------------------------------|
|-----------------------------------------------------------------|


Chorus A:
|---------------------------------------------------------|
|---------------------------------------------------------|
|---------------------------------------------------------|
|-5--5--5-5-5-5--5-5-5-5/--7---8--8--8-8-8-8--8-8-8-8--8--|
|-5--5--5-5-5-5--5-5-5-5---7---8--8--8-8-8-8--8-8-8-8--8--|
|-5--5--5-5-5-5--5-5-5-5/--7---8--8--8-8-8-8--8-8-8-8--8--|

|-/5--------------/5--------------/5--------------/5----5\6-|
|-----8-8-6-6-5-5-----8-8-6-6-5-5-----8-8-6-6-5-5-----8-----|
|-----------------------------------------------------------|
|-----------------------------------------------------------|
|-----------------------------------------------------------|
|-----------------------------------------------------------|
   

Chorus B:                                    PM.....
|---------------------------------------------------------------|
|---------------------------------------------------------------|
|---------------------------------------------------------------|
|-5--5--5-5-5-5--5-5-5-5/--7---8--8--8-8-8-8-0--0--0--8\--------|
|-5--5--5-5-5-5--5-5-5-5---7---8--8--8-8-8-8-0--0--0--8---------|
|-5--5--5-5-5-5--5-5-5-5/--7---8--8--8-8-8-8-0--0--0--8\--------|

Chorus C:
|----------------------0-----0-|
|----------------------5-----5-|
|------------------------------|
|-------0----------------------|
|-0-0-0-0--0-0-0-0-------------|
|-0-0-0-0--0-0-0-0-------------|
  PM...    .......



**Chorus A
**Chorus B
**Chorus C



Breakdown A:
|-----------------------------------------------------------------|x2
|-----------------------------------------------------------------|
|-----------------------------------------------------------------|
|-----------------------------------------------------------------|
|-8-8-8-8-8-8-8-8-8-8-8-8-8-8-8-8-0-0-0-0-0-0-0-0-0-0-0-0-0-0-0-0-|
|-8-8-8-8-8-8-8-8-8-8-8-8-8-8-8-8-0-0-0-0-0-0-0-0-0-0-0-0-0-0-0-0-|
  PM.............................................................

(Clean)
|-5---5-5---5-5-5---5---5-5---5-5-5---5-5---5-5-5---5---5-5---5-5-|x2
|-6---6-6---6-6-6---5---5-5---5-5-6---6-6---6-6-6---5---5-5---5-5-|
|-5---5-5---5-5-5---5---5-5---5-5-5---5-5---5-5-5---5---5-5---5-5-|
|-----------------------------------------------------------------|
|-----------------------------------------------------------------|
|-----------------------------------------------------------------|


**Intro


Verse B:
|-----------------------------------------------------------------|
|-6p5-8p5-6p5-8p5-6p5-8p5-6p5-8p5-6p5-8p5-6p5-8p5-6p5-8p5-6p5-8p5-|
|-----------------------------------------------------------------|
|-----------------------------------------------------------------|
|-----------------------------------------------------------------|
|-----------------------------------------------------------------|

|---------------------------------/5--------------/5--------------|
|-6p5-8p5-6p5-8p5-6p5-8p5-6p5-8p5-----8-8-6-6-5-5-----8-8-6-6-5-5-|
|-----------------------------------------------------------------|
|-----------------------------------------------------------------|
|-----------------------------------------------------------------|
|-----------------------------------------------------------------|



**Chorus A
**Chorus B
**Chorus C x4
**Chorus A
**Chorus B
 


Breakdown B:
(Clean)
|-5-------5-5-5-5-5-6--6-6-5--5-5-5-8--8-8-8-8-8-10--10-10-8--8-8-8--|x4
|-6-------6-6-6-6-6-6--6-6-6--6-6-6-6--6-6-6-6-6--8---8--8-6--6-6-6--|
|-5-------5-5-5-5-5-5--5-5-5--5-5-5-5--5-5-5-5-5-10--10-10-5--5-5-5--|
|------------------------------------------------10--10-10-----------|
|--------------------------------------------------------------------|
|--------------------------------------------------------------------|

(Clean)                                                                    
|-5-----5-----5----5------5-----5---8-----8-----8----8------8-----8---|x4
|---6-----6-----6-----6-----6-----6---6-----6-----6-----6-----6-----6-|
|-----5-----5-----------5-----5---------5-----5-----------5-----5-----|
|---------------------------------------------------------------------|
|---------------------------------------------------------------------|
|---------------------------------------------------------------------|

(Clean)
|-8---8---8---8----8----8---8---8----8----8---8---8---|
|---6---6---6---6-----6---6---6---6-----6---6---6---6-|
|-----------------------------------------------------|
|-----------------------------------------------------|
|-----------------------------------------------------|
|-----------------------------------------------------|


|-------------------------------------------------|
|-------------------------------------------------|
|-------------14-14-14-14-10-10-10-10--9--9--9--9-|
|--8--8--8--8--x--x--x--x--8--8--8--8--8--8--8--8-|
|--8--8--8--8-12-12-12-12--8--8--8--8--8--8--8--8-|---|
|--8--8--8--8-------------------------------------|   |
                                                      |4x
|---------------------------------|-------------------|
|---------------------------------|
|---------------------------------|
|-0-0-0-0-0-0-0-0-0-0-0-0-0-0-0-0-|
|-0-0-0-0-0-0-0-0-0-0-0-0-0-0-0-0-|
|-0-0-0-0-0-0-0-0-0-0-0-0-0-0-0-0-|

 
|-------------------------------------------------------------------------------------------------|x2
|-------------------------------------------------------------------------------------------------|
|-17-17-17-17-17-17-17-17-17-17-17-17-21-21-21-21-22-22-22-22-22-22-22-22-22-22-22-22-22-22-22-22-|
|--x--x--x--x--x--x--x--x--x--x--x--x--x--x--x--x--x--x--x--x--x--x--x--x--x--x--x--x--x--x--x--x-|
|--x--x--x--x--x--x--x--x--x--x--x--x--x--x--x--x--x--x--x--x--x--x--x--x--x--x--x--x--x--x--x--x-|
|-------------------------------------------------------------------------------------------------|

|--------------------------------------------------------------------------------------|x2
|--------------------------------------------------------------------------------------|
|-17-17---17-17---17-17---17-17---17-21---21-22-22---22-22---22-22---22-22---22-22-22--|
|--x--x----x--x----x--x----x--x----x--x----x--x--x----x--x----x--x----x--x----x--x--x--|
|--------------------------------------------------------------------------------------|
|--------------------------------------------------------------------------------------|


            
            
Suggest correction
Creating personal tab
Creating personal tab
You can edit any tab online and save it as your Personal.

You can edit, replace or remove any tab part or add personal notes – all changes will be seen only by you.

Personal tabs can be accessed anytime from any device, even offline.
Learn more »
comments
print report bad tab
guest
You may want to rate the tab now too:
select rating
Wanna post a correction for this tab? Suggest correction