Oops, an error
Loading. Please wait.

Note To Self Tab

version 1
version 1
18,732 views 15 this week
1 commentread comment
1 2 3 4 5
x 9
add to favorites
×
Save as Personal and add changes to this tab that will be seen only by you. Learn more ›
×
You can save this tab as Personal to edit and correct it or add notes. All changes will be seen only by you. Learn more »
save as personal
new!
launch autoscroll
font size
0
reset
how to read this tab
guitar tuner
Autoscroll
slow
fast
+/-
esc
set tempo
stop
From First To Last
Note To Self 

Tabbed by: xmikex
Email: jetblacknewyear666@yahoo.com

Guitar 1 (Left Speaker)

~ = Let it ring
x = Palm Mute
h = Hammer on
p = Pull-off
/ \ = Slide
* = Harmonics

00:00 - 00:16
|------------------------| 4x
|------------------------|
|------------------------|
|----------7---------9---|
|----7—--7—----7--—7-----|
|--5—--5—----5--—5-------|
   x x x x   x x x x

00:17 - 00:21
|-------------------------| 1x
|-------------------------|
|------7~-----5-------5---|
|----5------3-------3-----|
|--3------1---------------|
|-----------------1-------|

00:22 - 00:42
|---------------------------| 2x
|---------------------------|
|--99999999999-77777777777--|
|--77777777777-55555555555--|
|--77777777777-55555555555--|
|---------------------------|

00:43 - 00:50
|------------| 4x
|------------|
|------------|
|--99999999--|
|--77777777--|
|--77777777--|

00:51 - 1:06
|----------------------------------------|  2x
|----------------------------------------|
|--7777-9999-----------------------------|
|--5555-7777-—000000-7-0-7-000000-7-0-7--|
|--5555-7777--000000-5-0-5-000000-5-0-5--|
|-------------000000-5-0-5-000000-5-0-5--|
              xxxxxx   x   xxxxxx   x

1:07 - 1:22
|------------------------------------------------| 2x
|------------------------------------------------|
|--12121212-11111111-----------------------------|
|--10101010-—9-9-9-9—-000000-7-0-7-000000-7-0-7--|
|--10101010—-9-9-9-9--000000-5-0-5-000000-5-0-5--|
|---------------------000000-5-0-5-000000-5-0-5--|
                      xxxxxx   x   xxxxxx   x

1:23 - 1:31
|------|
|------|
|------|
|------|
|------|
|------|

1:32 - 1:47
|----------------------------------------------------| 2x
|--------10-12------10-12-------10-12-13-12-10-12----|
|--12-12-------12-12------12-12----------------------|
|----------------------------------------------------|
|----------------------------------------------------|
|----------------------------------------------------|

1:48 - 2:08
|--------------------------------------------------| 2x
|--------------------------------------------------|
|--777777777-121212121212/14-----------------------|
|--555555555-101010101010/12—-77-99-77-99-77-99----|
|--555555555-101010101010/12—-55-77-55-77-55-77----|
|-----------------------------55-77-55-77-55-77----|

2:09 - 2:11
|------|
|------|
|------|
|------|
|------|
|------|

2:12 - 2:32
|--------------------------------------------------| 2x
|--------------------------------------------------|
|--777777777-121212121212/14-----------------------|
|--555555555-101010101010/12—-77-99-77-99-77-99----|
|--555555555-101010101010/12—-55-77-55-77-55-77----|
|-----------------------------55-77-55-77-55-77----|

2:33 - 2:36
|-------------------------| 1x
|-------------------------|
|------7~-----5-------5---|
|----5------3-------3-----|
|--3------1---------------|
|-----------------1-------|

2:37 - 2:57
|---------------------------| 2x
|---------------------------|
|--99999999999-77777777777--|
|--77777777777-55555555555--|
|--77777777777-55555555555--|
|---------------------------|

2:58 - 3:19
|----------------------------| 3x |----------------------------------|1x
|----------------------------|    |----------------------------------|
|-----------------------12~--|    |-----------------------1212121212-|
|--00000000-5~-00000000-10~--|    |--00000000-5~-00000000-1010101010-|
|--00000000-7~-00000000-10~--|    |--00000000-7~-00000000-1010101010-|
|--00000000-7~-00000000------|    |--00000000-7~-00000000------------|

3:20 - 3:53
|------|
|------|
|------|
|------|
|------|
|------|

From First To Last
Note To Self 

(Guitar 2/Right Speaker)

00:00 - 00:16
|------------------------| 4x
|------------------------|
|------------------------|
|----------7---------9---|
|----7—--7—----7--—7-----|
|--5—--5—----5--—5-------|
   x x x x   x x x x

00:17 - 00:21
|-------------------------| 1x
|-------------------------|
|------7~-----5-------5---|
|----5------3-------3-----|
|--3------1---------------|
|-----------------1-------|

00:22 - 00:42
|---------------------------| 2x
|---------------------------|
|--99999999999-77777777777--|
|--77777777777-55555555555--|
|--77777777777-55555555555--|
|---------------------------|

00:43 - 00:50
|----------------------| 4x
|----------------------|
|----------------------|
|--9999—9h11-11-7-7h5--|
|--7777----------------|
|--7777----------------|

00:51 - 1:06
|------------------------------------------|  2x
|------------------------------------------|
|-----5b---5b------------------------------|
|-—--3----3-----000000-7-0-7-000000-7-0-7--|
|--1------------000000-5-0-5-000000-5-0-5--|
|-------1-------000000-5-0-5-000000-5-0-5--|
                xxxxxx   x   xxxxxx   x

1:23 - 1:31
|------|
|------|
|------|
|------|
|------|
|------|

1:32 - 1:47
|----------------------------------------------------| 2x
|--------10-12------10-12-------10-12-13-12-10-12----|
|--12-12-------12-12------12-12----------------------|
|----------------------------------------------------|
|----------------------------------------------------|
|----------------------------------------------------|

1:48 - 2:08
|--------------------------------------------------------------------|2x
|--------------------------------------------------------------------|
|--777777777-121212121212/14---------------7-5-4---------------7-5-4-|
|--555555555-101010101010/12—-77-99-77—5h7--------77-99-77—5h7-------|
|--555555555-101010101010/12—-55-77-55------------55-77-55-----------|
|-----------------------------55-77-55------------55-77-55-----------|

2:09 - 2:11
|----------------------|
|----------------------|
|----------------------|
|--77-99-77-99-77-99---|
|--77-99-77-99-77-99---|
|--55-77-55-77-55-77---|

2:12 - 2:31
|--------------------------------------------------------------------|2x
|--------------------------------------------------------------------|
|--777777777-121212121212/14---------------7-5-4---------------7-5-4-|
|--555555555-101010101010/12—-77-99-77—5h7--------77-99-77—5h7-------|
|--555555555-101010101010/12—-55-77-55------------55-77-55-----------|
|-----------------------------55-77-55------------55-77-55-----------|

2:32 - 2:36
|-------------------------| 1x
|-------------------------|
|------7~-----5-------5---|
|----5------3-------3-----|
|--3------1---------------|
|-----------------1-------|

2:37 - 2:57
|---------------------------| 2x
|---------------------------|
|--99999999999-77777777777--|
|--77777777777-55555555555--|
|--77777777777-55555555555--|
|---------------------------|

2:58 - 3:19
|----------------------------| 3x |----------------------------------|1x
|----------------------------|    |----------------------------------|
|-----------------------12~--|    |-----------------------1212121212-|
|--00000000-5~-00000000-10~--|    |--00000000-5~-00000000-1010101010-|
|--00000000-7~-00000000-10~--|    |--00000000-7~-00000000-1010101010-|
|--00000000-7~-00000000------|    |--00000000-7~-00000000------------|

3:20 - 3:53
|------|
|------|
|------|
|------|
|------|
|------|
Suggest correction
comments
print report bad tab
1 comment total.
0 reply
IbanezRG2EX1man 10 Mar 30, 2015 09:13 PM

Lack of accuracy. Clearly wrong. this is NO where near the song at all and who ever made this should be ashamed to of posted this

guest
Wanna post a correction for this tab? Suggest correction