Oops, an error
Loading. Please wait.

Note To Self tab

version 2
version 2
46,380 views 54 this week
19 commentsread comments
1 2 3 4 5
x 34
add to favorites
×
Save as Personal and add changes to this tab that will be seen only by you. Learn more ›
×
You can save this tab as Personal to edit and correct it or add notes. All changes will be seen only by you. Learn more »
launch autoscroll
font size
0
reset
how to read this tab
guitar tuner
edit
Autoscroll
slow
fast
+/-
esc
set tempo
stop
Author
From First To Last
Note To Self 

Tabbed by: EdDy
Email: ishouldofknownthatyouwereakiller@yahoo.com
Tuned: Drop D

~ = Let it ring
. = Palm Mute
h = Hammer on
p = Pull-off
/ \ = Slide
* = Harmonics

Guitar 1 (Rhythm guitar)


00:00 - 00:16
|--------------------------------------------| 4x
|--------------------------------------------|
|------------------------55555555555555555555|
|--22222222222222222222--55555555555555555555|
|--22222222222222222222--33333333333333333333|
|--22222222222222222222----------------------|
   ....................  ....................

00:17 - 00:21
|-------------------------| 1x
|-------------------------|
|------7~-----4-------4---|
|----9------2-------2-----|
|--7------3-------0-------|
|-------------------------|

00:22 - 00:42
|-----------------------| 2x
|-----------------------|
|----------5------------|
|--2-------5-(32X)------|
|--2-(32X)-3------------|
|--2--------------------|

00:43 - 00:50
|----------------| 4x
|----------------|
|--555555-5-5-5--| 
|--555555-5-5-5--|
|--333333-3-3-3--|
|----------------|

00:51 - 1:06
|--------------------------------------------|  2x
|--------------------------------------------|
|--------------------------------------------|
|------------—------00000-0-0-0-00000-0-0-0--|
|--2222222-3333333--00000-0-0-0-00000-0-0-0--|
|-------------------00000-0-0-0-00000-0-0-0--|
                    .....   .   .....   .

1:07 - 1:22
|------------------------------------------------------| 2x
|------------------------------------------------------|
|--1212121212-111111111111-----------------------------|
|--xxxxxxxxxx-xxxxxxxxxxxx--00000--0-0-0-00000--0-0-0--|
|--1010101010—999999999999--00000--0-0-0-00000--0-0-0--|
|---------------------------00000--0-0-0-00000--0-0-0--|
                            .....   .    .....    .

1:23 - 1:31
|------|
|------|
|------|
|------|
|------|
|------|

1:32 - 1:47
|----0---0-----0----0----0---0-----0----0---0---0----0---0--| 2x
|--8---8----10---12----8---8----10---12---13--12--10---12---|
|-----------------------------------------------------------|
|-----------------------------------------------------------|
|-----------------------------------------------------------|
|-----------------------------------------------------------|

1:48 - 2:08
|--------------------------    -------------------------| 2x
|--------------------------    -------------------------|
|--1212121212121212-1111---(2x)-------------------------|
|--xxxxxxxxxxxxxxxx--xx----    -33333--0000--33333-0000-|
|--1010101010101010--99----    -33333--0000--33333-0000-|
|--------------------------    -33333--0000--33333-0000-|

2:09 - 2:11
|------|
|------|
|------|
|------|
|------|
|------|

2:12 - 2:32
|--------------------------    -------------------------| 2x
|--------------------------    -------------------------|
|--1212121212121212-1111---(2x)-------------------------|
|--xxxxxxxxxxxxxxxx--xx----    -33333--0000--33333-0000-|
|--1010101010101010--99----    -33333--0000--33333-0000-|
|--------------------------    -33333--0000--33333-0000-|

2:33 - 2:36
|-------------------------| 1x
|-------------------------|
|------7~-----4-------4---|
|----9------2-------2-----|
|--7------3-------0-------|
|-------------------------|

2:37 - 2:57
|-----------------------| 2x
|-----------------------|
|----------5------------|
|--2-------5-(32X)------|
|--2-(32X)-3------------|
|--2--------------------|

2:58 - 3:19
|----------------------------| 3x |---------------------------------|1x
|----------------------------|    |---------------------------------|
|-----------------------9~---|    |-----------------------9-9-9-9-9-|
|--00000000-0~-00000000-x~---|    |--00000000-0~-00000000-x-x-x-x-x-|
|--00000000-0~-00000000-7~---|    |--00000000-0~-00000000-7-7-7-7-7-|
|--00000000-0~-00000000------|    |--00000000-0~-00000000-----------|
   ........    ........
3:20 - 3:53
|------|
|------|
|------|
|------|
|------|
|------|

This is my first tab...
im sure its 100%...
you gotta listen closely...
some of this stuff you cant hear...
I will tab lead guitar later...
see yah...

            
            
Suggest correction
Creating personal tab
Creating personal tab
You can edit any tab online and save it as your Personal.

You can edit, replace or remove any tab part or add personal notes – all changes will be seen only by you.

Personal tabs can be accessed anytime from any device, even offline.
Learn more »
comments
print report bad tab
19 comments total. Showing first comments.
0 reply
sleptsolong565 10 Sep 09, 2005 08:00 PM

hey...i was wondering...can you get to posting them lead guitar tabs for note to self soon? cuz i have it down to like right where sonny starts singing..but i dont feel like figuring out the rest..and yours are pretty good so im sure youll do good on the lead guitar lyrics..so yeah..id appreciate it if you hooked me up with them.

0 reply
kcsk8r 820 Oct 16, 2005 02:12 PM

a couple of parts are wrong... when i feel unlazy enough i'll tab it myself... for the most part its good though

0 reply
sleptsolong565 10 Oct 19, 2005 08:14 AM

someone tab the lead guitarrrrrrrrrrrrrrrrrrrrrr

guest
You may want to rate the tab now too:
select rating
Wanna post a correction for this tab? Suggest correction