Oops, an error
Loading. Please wait.

Note To Self tab

version 6
version 6
5,229 views 9 this week
no commentswrite comment
1 2 3 4 5
x 3
add to favorites
×
Save as Personal and add changes to this tab that will be seen only by you. Learn more ›
×
You can save this tab as Personal to edit and correct it or add notes. All changes will be seen only by you. Learn more »
launch autoscroll
font size
0
reset
how to read this tab
guitar tuner
edit
Autoscroll
slow
fast
+/-
esc
set tempo
stop
Note to Self
From First to Last
tuning: drop D
 
Sorry, I only have one part for guitar two, 
I will try and finish tabbing guitar two later.

 Intro- guitar1              00:00 - 00:16
|--------------------------------------------|
|--------------------------------------------|   there is a slight variation
|-------------------7-------------------9----|8x-in the intro here in the
|--------7------7-----------7------7---------|   intro here that i haven't
|----5------5-----------5------5-------------|   figured out yet,but this 
|--------------------------------------------|   still sounds alright.
 Pm  ^  ^   ^  ^        ^   ^  ^   ^

 Intro- guitar2           play 4x                          00:00 - 00:16
|--------------------------------------------------------------------------|
|--------------------------------------------------------------------------|
|----------------------------------------------------5-5-5-5-5---5-5-5-5-5-|
|--2-2-2-2-22---2-2-2-2-2----2-2-2-2-22---2-2-2-2-2--5-5-5-5-5---5-5-5-5-5-|
|--2-2-2-2-22---2-2-2-2-2----2-2-2-2-22---2-2-2-2-2--3-3-3-3-3---3-3-3-3-3-|
|--2-2-2-2-22---2-2-2-2-2----2-2-2-2-22---2-2-2-2-2------------------------|

  00:17 - 00:22
|------------------------------------| 
|------------------------------------|  
|----------7~---------4---------4----| 1x
|-------9----------2---------2-------| 
|----7----------3---------0----------|  
|------------------------------------|

  00:22 - 00:42
|-----------------------------| 
|-----------------------------|  
|-----------------4-----------| 2x
|----2------------2---(24x)---| 
|----2---(24x)----2-----------|  
|----2------------------------|
 
  00:43 - 00:51
|------------------------------------| 
|------------------------------------|  
|---444444--4-4-4---444444--4-4-4----| 2x
|---444444--4-4-4---444444--4-4-4----| 
|---222222--2-2-2---222222--2-2-2----|  
|------------------------------------|

  00:51 - 01:23
|-----------------------------------------------------------| 
|-----------------------------------------------------------|  
|-----------------------------------------------------------| 2x
|--------------------------22222-2--2--2---22222-2--2--2----| 
|----22222222---33333333---22222-2--2--2---22222-2--2--2----|  
|--------------------------22222-2--2--2---22222-2--2--2----|
                       Pm  ^^^^^    ^      ^^^^^    ^

|---------------------------------------------------------------------------|
|---------------------------------------------------------------------------|
|12-12-12-12-12-12-12-12--11-11-11-11-11-11-11-11---------------------------|
|x--x--x--x--x---x--x--x--x--x--x--x--x--x--x--x--22222-2--2--2--22222-2-2-2|
|10-10-10-10-10-10-10-10--9--9--9--9--9--9--9--9--22222-2--2--2--22222-2-2-2|
|-------------------------------------------------22222-2--2--2--22222-2-2-2|
                                              PM  ^^^^^    ^     ^^^^^   ^

 Pause  01:24 - 01:31
|------|
|------|
|------|   Only Bass plays here
|------|
|------|
|------|

  01:32 - 01:48
|-----------------------------------------------------------------------|
|------------10--12------------10--12----------10--12---13--12--10--12--|  
|---12--12------------12--12------------12--12--------------------------|2x
|-----------------------------------------------------------------------|
|-----------------------------------------------------------------------|
|-----------------------------------------------------------------------|

  01:48 - 02:09            play 2x
|-------------------------------------------------------------------------|
|-------------------------------------------------------------------------|
|--55555555-4-77777777/9~--77-88-77-77--5p*--4-----77-88-77-77--5p*--4----|
|--55555555-4-77777777/9~--77-88-77-77----------5--77-88-77-77----------5-|
|--33333333-3-55555555/5~--55-66-55-55-------------55-66-55-55------------|
|-------------------------------------------------------------------------|
                                                     
 02:09 - 02:12
|-------------------------| 
|-------------------------|  
|----55-66-55-66-5/6/5----| 
|----55-66-55-66-5/6/5----|  
|----33-44-33-44-3/3/3----| 
|-------------------------|

 02:12 - 02:32       play 2x
|--------------------------------------------------------------------------|
|--------------------------------------------------------------------------|
|--55555555-4-77777777/9~--77-88-77-77---5p*--4-----77-88-77-77--5p*--4----|
|--55555555-4-77777777/9~--77-88-77-77-----------5--77-88-77-77----------5-|
|--33333333-3-55555555/5~---55-66-55-55---------------55-66-55-55----------|
|--------------------------------------------------------------------------|
                                                                 
 02:32 - 02:37
|-----------------------------------| 
|-----------------------------------|  
|----------7~--------4---------4----| 1x
|-------9----------2---------2------| 
|----7----------3---------0---------|  
|-----------------------------------|

 02:37 - 02:57
|-------------------------------| 
|-------------------------------|  
|------------------4------------| 2x
|----2-------------2---(24x)----| 
|----2---(24x)-----2------------|  
|----2--------------------------|

  02:57 - 03:19
|--------------------------------|       
|--------------------------------|       
|--------------------------------| 3x  fast  strumming
|----44444444-3~--44444444-6~----|      when playing 4's   
|----44444444-3~--44444444-6~----|   4's go with double kicks
|----44444444-3~--44444444-6~----|      

|----------------------------------------|
|----------------------------------------|
|----------------------------------------|
|----44444444-3~--44444444--99-99-9/8~---| 1x -Then finish 
|----44444444-3~--44444444--99-99-9/8~---|       with this
|----44444444-3~--44444444--99-99-9/8~---|

 ~ - let ring
 / - slide
 h - hammer on
 p* - pull off
Pm ^ - palm mute

Any questions/complaints e-mail me at skateboard_canada_13@hotmail.com
let me know if any of this is wrong, or if you have any other good FFTL tabs.

            
            
Suggest correction
Creating personal tab
Creating personal tab
You can edit any tab online and save it as your Personal.

You can edit, replace or remove any tab part or add personal notes – all changes will be seen only by you.

Personal tabs can be accessed anytime from any device, even offline.
Learn more »
Give kudos to tab author, rate the tab!
1 2 3 4 5
comments
print report bad tab
guest
You may want to rate the tab now too:
select rating
Wanna post a correction for this tab? Suggest correction