Oops, an error
Loading. Please wait.

Note To Self tab

version 8
version 8
1,819 views 1 this week
3 commentsread comments
1 2 3 4 5
x 3
add to favorites
×
Save as Personal and add changes to this tab that will be seen only by you. Learn more ›
×
You can save this tab as Personal to edit and correct it or add notes. All changes will be seen only by you. Learn more »
launch autoscroll
font size
0
reset
how to read this tab
guitar tuner
edit
Autoscroll
slow
fast
+/-
esc
set tempo
stop
Author
Difficulty
intermediate
note to self                                   


                                                              from first to last
guitar 1



      ^           ^ ^ ^ ^     ^ ^ ^ ^        ^ ^ ^ ^      ^  ^  ^  ^      ^  ^  
      S S S S  E  S S S S  E  S S S S     E  S S S S  E   S  S  S  S  E   S  S  
E||-----------------------------------|----------------------------------------|
B||-----------------------------------|----------------------------------------|
G||*----------11----------12----------|--11----------12--------------11--------|
D||*----9---9-------9---9-------9---9-|--------9---9--------10----10--------10-|
A||---7---7-------7---7-------7---7---|------7---7-----------------------------|
D||-----------------------------------|------------------10----10--------10----|


   ^  ^      ^  ^  ^  ^      ^  ^  ^  ^                               
   S  S  E   S  S  S  S  E   S  S  S  S  E       E.  E.  H        E   
---------------------------------------------||----------------------|
---------------------------------------------||----------------------|
--------12--------------11--------------12--*||----------7--------L--|
-----10--------10----10--------10----10-----*||------9---------------|
---------------------------------------------||--7-------------------|
--10--------10----10--------10----10---------||----------------------|


                            ^  ^  ^  ^  ^  ^  ^  ^  ^  ^  ^  ^  ^  ^  ^  ^  
  E.  E.  E  E.  E.  E      S  S  S  S  S  S  S  S  S  S  S  S  S  S  S  S  
------------------------|--------------------------------------------------|
------------------------|--------------------------------------------------|
----------4----------4--|--12-12-12-12-12-12-12-12-12-12-12-12-12-12-12-12-|
------5----------2------|---x--x--x--x--x--x--x--x--x--x--x--x--x--x--x--x-|
--3----------0----------|--10-10-10-10-10-10-10-10-10-10-10-10-10-10-10-10-|
------------------------|--------------------------------------------------|


   ^  ^  ^  ^  ^  ^  ^  ^ ^ ^   ^   ^       
   S  S  S  S  S  S  S  S S S S S S S S  S  
--------------------------------0--------0-|
----------------------------0---0---0----0-|
--12-12-12-12-12-12-12-12-0-9-9-9-9-9-9-12-|
---x--x--x--x--x--x--x--x-x-x-x-x-x-x-x--x-|
--10-10-10-10-10-10-10-10-7-7-7-7-7-7-7-10-|
-------------------------------------------|


   ^  ^  ^  ^  ^  ^  ^  ^  ^  ^  ^  ^  ^  ^  ^  ^  
   S  S  S  S  S  S  S  S  S  S  S  S  S  S  S  S  
--------------------------------------------------|
--------------------------------------------------|
--12-12-12-12-12-12-12-12-12-12-12-12-12-12-12-12-|
---x--x--x--x--x--x--x--x--x--x--x--x--x--x--x--x-|
--10-10-10-10-10-10-10-10-10-10-10-10-10-10-10-10-|
--------------------------------------------------|


   ^  ^  ^  ^  ^  ^  ^  ^                          
   S  S  S  S  S  S  S  S  S  S  S  S  S  S  S  S  
---------------------------0--0--0--0--0--0--0--0-|
---------------------------0--0--0--0--0--0--0--0-|
--12-12-12-12-12-12-12-12-14-14-14-14-14-14-14-16-|
---x--x--x--x--x--x--x--x--x--x--x--x--x--x--x--x-|
--10-10-10-10-10-10-10-10-12-12-12-12-12-12-12-14-|
--------------------------------------------------|


   ^  ^  ^  ^  ^  ^  ^  ^  ^  ^  ^  ^  ^  ^  ^  ^  
   S  S  S  S  S  S  S  S  S  S  S  S  S  S  S  S  
--------------------------------------------------|
--------------------------------------------------|
--12-12-12-12-12-12-12-12-12-12-12-12-12-12-12-12-|
---x--x--x--x--x--x--x--x--x--x--x--x--x--x--x--x-|
--10-10-10-10-10-10-10-10-10-10-10-10-10-10-10-10-|
--------------------------------------------------|


   ^  ^  ^  ^  ^  ^  ^  ^ ^ ^   ^   ^       
   S  S  S  S  S  S  S  S S S S S S S S  S  
--------------------------------0--------0-|
----------------------------0---0---0----0-|
--12-12-12-12-12-12-12-12-0-9-9-9-9-9-9-12-|
---x--x--x--x--x--x--x--x-x-x-x-x-x-x-x--x-|
--10-10-10-10-10-10-10-10-7-7-7-7-7-7-7-10-|
-------------------------------------------|


   ^  ^  ^  ^  ^  ^  ^  ^  ^  ^  ^  ^  ^  ^  ^  ^  
   S  S  S  S  S  S  S  S  S  S  S  S  S  S  S  S  
--------------------------------------------------|
--------------------------------------------------|
--12-12-12-12-12-12-12-12-12-12-12-12-12-12-12-12-|
---x--x--x--x--x--x--x--x--x--x--x--x--x--x--x--x-|
--10-10-10-10-10-10-10-10-10-10-10-10-10-10-10-10-|
--------------------------------------------------|


   ^  ^  ^  ^  ^  ^  ^  ^                          
   S  S  S  S  S  S  S  S  S  S  S  S  S  S  S  S  
---------------------------0--0--0--0--0--0--0--0-|
---------------------------0--0--0--0--0--0--0--0-|
--12-12-12-12-12-12-12-12-14-14-14-14-14-14-14-14-|
---x--x--x--x--x--x--x--x--x--x--x--x--x--x--x--x-|
--10-10-10-10-10-10-10-10-12-12-12-12-12-12-12-12-|
--------------------------------------------------|


    S S S S S S S S S S S S  4x  E  S E  S S  S Q    E  S S  
|----------------------------||-----------------------------|
|-----------------5----------||-----------------------------|
|*--7-7-7-7-7-7-4---7-5-4---*||-------4----4h-5-4---------4-|
|*--5-5-5-5-5-5-----------5-*||-----5----5--------------5---|
|---3-3-3-3-3-3--------------||--2-------------------3------|
|----------------------------||-----------------------------|


                PM PM PM PM PM PM PM PM PM PM PM PM       
  S S S  S Q    T  T  T  T  T  T  T  T  T  T  T  T  S. T  
----------------------------------------------------0----|
----------------------------------------------------0----|
--L---4h-5-4----------------------------------------0----|
----5-----------2--2--2--2--2--2--2--2--2--2--2--2-------|
----------------2--2--2--2--2--2--2--2--2--2--2--2-------|
----------------2--2--2--2--2--2--2--2--2--2--2--2-------|


               PM PM PM PM PM PM PM PM PM PM PM PM                    
  T T T T S. T T  T  T  T  T  T  T  T  T  T  T  T  S. T T T T T S. T  
----------0----------------------------------------0------------0----|
----------0----------------------------------------0------------0----|
----------0----------------------------------------0------------0----|
--2------------2--2--2--2--2--2--2--2--2--2--2--2-------2------------|
--2------------2--2--2--2--2--2--2--2--2--2--2--2-------2------------|
--2------------2--2--2--2--2--2--2--2--2--2--2--2-------2------------|


  E  S E  S S  S Q    E  S S  
-----------------------------|
-----------------------------|
-------4----4h-5-4---------4-|
-----5----5--------------5---|
--2-------------------3------|
-----------------------------|


                PM PM PM PM PM PM PM PM PM PM PM PM       
  S S S  S Q    T  T  T  T  T  T  T  T  T  T  T  T  S. T  
----------------------------------------------------0----|
----------------------------------------------------0----|
--L---4h-5-4----------------------------------------0----|
----5-----------2--2--2--2--2--2--2--2--2--2--2--2-------|
----------------2--2--2--2--2--2--2--2--2--2--2--2-------|
----------------2--2--2--2--2--2--2--2--2--2--2--2-------|


               PM PM PM PM PM PM PM PM PM PM PM PM                    
  T T T T S. T T  T  T  T  T  T  T  T  T  T  T  T  S. T T T T T S. T  
----------0----------------------------------------0------------0----|
----------0----------------------------------------0------------0----|
----------0----------------------------------------0------------0----|
--2------------2--2--2--2--2--2--2--2--2--2--2--2-------2------------|
--2------------2--2--2--2--2--2--2--2--2--2--2--2-------2------------|
--2------------2--2--2--2--2--2--2--2--2--2--2--2-------2------------|


  E  S E  S S  S Q    E  S S  
-----------------------------|
-----------------------------|
-------4----4h-5-4---------4-|
-----5----5--------------5---|
--2-------------------3------|
-----------------------------|


                PM PM PM PM PM PM PM PM PM PM PM PM       
  S S S  S Q    T  T  T  T  T  T  T  T  T  T  T  T  S. T  
----------------------------------------------------0----|
----------------------------------------------------0----|
--L---4h-5-4----------------------------------------0----|
----5-----------2--2--2--2--2--2--2--2--2--2--2--2-------|
----------------2--2--2--2--2--2--2--2--2--2--2--2-------|
----------------2--2--2--2--2--2--2--2--2--2--2--2-------|


               PM PM PM PM PM PM PM PM PM PM PM PM                    
  T T T T S. T T  T  T  T  T  T  T  T  T  T  T  T  S. T T T T T S. T  
----------0----------------------------------------0------------0----|
----------0----------------------------------------0------------0----|
----------0----------------------------------------0------------0----|
--2------------2--2--2--2--2--2--2--2--2--2--2--2-------2------------|
--2------------2--2--2--2--2--2--2--2--2--2--2--2-------2------------|
--2------------2--2--2--2--2--2--2--2--2--2--2--2-------2------------|


  E  S E  S S  S Q    E  S S  
-----------------------------|
-----------------------------|
-------4----4h-5-4---------4-|
-----5----5--------------5---|
--2-------------------3------|
-----------------------------|


                PM PM PM PM PM PM PM PM PM PM PM PM       
  S S S  S Q    T  T  T  T  T  T  T  T  T  T  T  T  S. T  
----------------------------------------------------0----|
----------------------------------------------------0----|
--L---4h-5-4----------------------------------------0----|
----5-----------2--2--2--2--2--2--2--2--2--2--2--2-------|
----------------2--2--2--2--2--2--2--2--2--2--2--2-------|
----------------2--2--2--2--2--2--2--2--2--2--2--2-------|


               PM PM PM PM PM PM PM PM PM PM PM PM                    
  T T T T S. T T  T  T  T  T  T  T  T  T  T  T  T  S. T T T T T S. T  
----------0----------------------------------------0------------0----|
----------0----------------------------------------0------------0----|
----------0----------------------------------------0------------0----|
--2------------2--2--2--2--2--2--2--2--2--2--2--2-------2------------|
--2------------2--2--2--2--2--2--2--2--2--2--2--2-------2------------|
--2------------2--2--2--2--2--2--2--2--2--2--2--2-------2------------|


  W                   W                   H        H                            
--0----------------|-------------------|--------------------||-----|----|-----||
--0----------------|-------------------|--------------------||-----|----|-----||
--0----------------|--L----------------|--L-----------------||*----|----|----*||
--2----------------|--L----------------|--------------------||*----|----|----*||
--2----------------|-------------------|--------------------||-----|----|-----||
--2----------------|-------------------|--------------------||-----|----|-----||


  TP                                              
  W                   E  E  S S S E  S E  S S E   
-------------------|-----------------------------|
-------------------|-----------------------------|
-------------------|--7--7--7-7-7-7--7-7--7-7-7--|
--2----------------|--5--5--5-5-5-5--5-5--5-5-5--|
--2----------------|--3--3--3-3-3-3--3-3--3-3-3--|
--2----------------|-----------------------------|


  S S S S S S S S S S S S S S S S S S S S S S S S S S S S S S S S  
------------------------------------------------------------------|
------------------------------------------------------------------|
--0-0---0-0---0-0-----------------0-0---0-0---0-0-----------------|
--7-7---7-7---7-7---0-0---0-0-0---7-7---7-7---7-7---0-0---0-0-0---|
--5-5---5-5---5-5---0-0---0-0-0---5-5---5-5---5-5---0-0---0-0-0---|
--5-5---5-5---5-5---0-0---0-0-0---5-5---5-5---5-5---0-0---0-0-0---|


  TP                                              
  W                   E  E  S S S E  S E  S S E   
-------------------|-----------------------------|
-------------------|-----------------------------|
-------------------|--7--7--7-7-7-7--7-7--7-7-7--|
--2----------------|--5--5--5-5-5-5--5-5--5-5-5--|
--2----------------|--3--3--3-3-3-3--3-3--3-3-3--|
--2----------------|-----------------------------|


  S S S S S S S S S S S S S S S S S S S S S S S S S S S S S S S S  
------------------------------------------------------------------|
------------------------------------------------------------------|
--0-0---0-0---0-0-----------------0-0---0-0---0-0-----------------|
--7-7---7-7---7-7---0-0---0-0-0---7-7---7-7---7-7---0-0---0-0-0---|
--5-5---5-5---5-5---0-0---0-0-0---5-5---5-5---5-5---0-0---0-0-0---|
--5-5---5-5---5-5---0-0---0-0-0---5-5---5-5---5-5---0-0---0-0-0---|


                                     TP                
  S S S S S S S S S S S S S S S S    W                 
----------------------------------|-------------------|
----------------------------------|-------------------|
----------------------------------|-------------------|
--4-4---5-5---4-4---5-5---4-5-5-4-|--2----------------|
--2-2---2-2---2-2---2-2---2-2-2-2-|--2----------------|
--2-2---2-2---2-2---2-2---2-2-2-2-|--2----------------|


  E  E  S S S E  S E  S S E   
-----------------------------|
-----------------------------|
--7--7--7-7-7-7--7-7--7-7-7--|
--5--5--5-5-5-5--5-5--5-5-5--|
--3--3--3-3-3-3--3-3--3-3-3--|
-----------------------------|


  S S S S S S S S S S S S S S S S S S S S S S S S S S S S S S S S  
------------------------------------------------------------------|
------------------------------------------------------------------|
--0-0---0-0---0-0-----------------0-0---0-0---0-0-----------------|
--7-7---7-7---7-7---0-0---0-0-0---7-7---7-7---7-7---0-0---0-0-0---|
--5-5---5-5---5-5---0-0---0-0-0---5-5---5-5---5-5---0-0---0-0-0---|
--5-5---5-5---5-5---0-0---0-0-0---5-5---5-5---5-5---0-0---0-0-0---|


  TP                                              
  W                   E  E  S S S E  S E  S S E   
-------------------|-----------------------------|
-------------------|-----------------------------|
-------------------|--7--7--7-7-7-7--7-7--7-7-7--|
--2----------------|--5--5--5-5-5-5--5-5--5-5-5--|
--2----------------|--3--3--3-3-3-3--3-3--3-3-3--|
--2----------------|-----------------------------|


  S S S S S S S S S S S S S S S S S S S S S S S S S S S S S S S S  
------------------------------------------------------------------|
------------------------------------------------------------------|
--0-0---0-0---0-0-----------------0-0---0-0---0-0-----------------|
--7-7---7-7---7-7---0-0---0-0-0---7-7---7-7---7-7---0-0---0-0-0---|
--5-5---5-5---5-5---0-0---0-0-0---5-5---5-5---5-5---0-0---0-0-0---|
--5-5---5-5---5-5---0-0---0-0-0---5-5---5-5---5-5---0-0---0-0-0---|


  E.  E.  H        E     E.  E.  E  E.  E.  E   
----------------------|------------------------|
----------------------|------------------------|
----------7--------L--|----------4----------4--|
------9---------------|------5----------2------|
--7-------------------|--3----------0----------|
----------------------|------------------------|


   ^  ^  ^  ^  ^  ^  ^  ^  ^  ^  ^  ^  ^  ^  ^  ^  
   S  S  S  S  S  S  S  S  S  S  S  S  S  S  S  S  
--------------------------------------------------|
--------------------------------------------------|
--12-12-12-12-12-12-12-12-12-12-12-12-12-12-12-12-|
---x--x--x--x--x--x--x--x--x--x--x--x--x--x--x--x-|
--10-10-10-10-10-10-10-10-10-10-10-10-10-10-10-10-|
--------------------------------------------------|


   ^  ^  ^  ^  ^  ^  ^  ^ ^ ^   ^   ^       
   S  S  S  S  S  S  S  S S S S S S S S  S  
--------------------------------0--------0-|
----------------------------0---0---0----0-|
--12-12-12-12-12-12-12-12-0-9-9-9-9-9-9-12-|
---x--x--x--x--x--x--x--x-x-x-x-x-x-x-x--x-|
--10-10-10-10-10-10-10-10-7-7-7-7-7-7-7-10-|
-------------------------------------------|


   ^  ^  ^  ^  ^  ^  ^  ^  ^  ^  ^  ^  ^  ^  ^  ^  
   S  S  S  S  S  S  S  S  S  S  S  S  S  S  S  S  
--------------------------------------------------|
--------------------------------------------------|
--12-12-12-12-12-12-12-12-12-12-12-12-12-12-12-12-|
---x--x--x--x--x--x--x--x--x--x--x--x--x--x--x--x-|
--10-10-10-10-10-10-10-10-10-10-10-10-10-10-10-10-|
--------------------------------------------------|


   ^  ^  ^  ^  ^  ^  ^  ^                          
   S  S  S  S  S  S  S  S  S  S  S  S  S  S  S  S  
---------------------------0--0--0--0--0--0--0--0-|
---------------------------0--0--0--0--0--0--0--0-|
--12-12-12-12-12-12-12-12-14-14-14-14-14-14-14-16-|
---x--x--x--x--x--x--x--x--x--x--x--x--x--x--x--x-|
--10-10-10-10-10-10-10-10-12-12-12-12-12-12-12-14-|
--------------------------------------------------|


   ^  ^  ^  ^  ^  ^  ^  ^  ^  ^  ^  ^  ^  ^  ^  ^  
   S  S  S  S  S  S  S  S  S  S  S  S  S  S  S  S  
--------------------------------------------------|
--------------------------------------------------|
--12-12-12-12-12-12-12-12-12-12-12-12-12-12-12-12-|
---x--x--x--x--x--x--x--x--x--x--x--x--x--x--x--x-|
--10-10-10-10-10-10-10-10-10-10-10-10-10-10-10-10-|
--------------------------------------------------|


   ^  ^  ^  ^  ^  ^  ^  ^ ^ ^   ^   ^       
   S  S  S  S  S  S  S  S S S S S S S S  S  
--------------------------------0--------0-|
----------------------------0---0---0----0-|
--12-12-12-12-12-12-12-12-0-9-9-9-9-9-9-12-|
---x--x--x--x--x--x--x--x-x-x-x-x-x-x-x--x-|
--10-10-10-10-10-10-10-10-7-7-7-7-7-7-7-10-|
-------------------------------------------|


   ^  ^  ^  ^  ^  ^  ^  ^  ^  ^  ^  ^  ^  ^  ^  ^  
   S  S  S  S  S  S  S  S  S  S  S  S  S  S  S  S  
--------------------------------------------------|
--------------------------------------------------|
--12-12-12-12-12-12-12-12-12-12-12-12-12-12-12-12-|
---x--x--x--x--x--x--x--x--x--x--x--x--x--x--x--x-|
--10-10-10-10-10-10-10-10-10-10-10-10-10-10-10-10-|
--------------------------------------------------|


   ^  ^  ^  ^  ^  ^  ^  ^                          
   S  S  S  S  S  S  S  S  S  S  S  S  S  S  S  S  
---------------------------0--0--0--0--0--0--0--0-|
---------------------------0--0--0--0--0--0--0--0-|
--12-12-12-12-12-12-12-12-14-14-14-14-14-14-14-14-|
---x--x--x--x--x--x--x--x--x--x--x--x--x--x--x--x-|
--10-10-10-10-10-10-10-10-12-12-12-12-12-12-12-12-|
--------------------------------------------------|


  PM PM PM PM PM PM PM PM PM PM PM PM PM PM PM PM           
  T  T  T  T  T  T  T  T  T  T  T  T  T  T  T  T  H         
--------------------------------------------------0--------|
--------------------------------------------------0--------|
--------------------------------------------------0--------|
--2--2--2--2--2--2--2--2--2--2--2--2--2--2--2--2--2--------|
--2--2--2--2--2--2--2--2--2--2--2--2--2--2--2--2--2--------|
--2--2--2--2--2--2--2--2--2--2--2--2--2--2--2--2--2--------|


  PM PM PM PM PM PM PM PM PM PM PM PM PM PM PM PM           
  T  T  T  T  T  T  T  T  T  T  T  T  T  T  T  T  H         
-----------------------------------------------------------|
-----------------------------------------------------------|
--------------------------------------------------9--------|
--2--2--2--2--2--2--2--2--2--2--2--2--2--2--2--2--x--------|
--2--2--2--2--2--2--2--2--2--2--2--2--2--2--2--2--7--------|
--2--2--2--2--2--2--2--2--2--2--2--2--2--2--2--2-----------|


  PM PM PM PM PM PM PM PM PM PM PM PM PM PM PM PM           
  T  T  T  T  T  T  T  T  T  T  T  T  T  T  T  T  H         
--------------------------------------------------0--------|
--------------------------------------------------0--------|
--------------------------------------------------0--------|
--2--2--2--2--2--2--2--2--2--2--2--2--2--2--2--2--2--------|
--2--2--2--2--2--2--2--2--2--2--2--2--2--2--2--2--2--------|
--2--2--2--2--2--2--2--2--2--2--2--2--2--2--2--2--2--------|


  PM PM PM PM PM PM PM PM PM PM PM PM PM PM PM PM           
  T  T  T  T  T  T  T  T  T  T  T  T  T  T  T  T  H         
-----------------------------------------------------------|
-----------------------------------------------------------|
--------------------------------------------------9--------|
--2--2--2--2--2--2--2--2--2--2--2--2--2--2--2--2--x--------|
--2--2--2--2--2--2--2--2--2--2--2--2--2--2--2--2--7--------|
--2--2--2--2--2--2--2--2--2--2--2--2--2--2--2--2-----------|


  PM PM PM PM PM PM PM PM PM PM PM PM PM PM PM PM           
  T  T  T  T  T  T  T  T  T  T  T  T  T  T  T  T  H         
--------------------------------------------------0--------|
--------------------------------------------------0--------|
--------------------------------------------------0--------|
--2--2--2--2--2--2--2--2--2--2--2--2--2--2--2--2--2--------|
--2--2--2--2--2--2--2--2--2--2--2--2--2--2--2--2--2--------|
--2--2--2--2--2--2--2--2--2--2--2--2--2--2--2--2--2--------|


  PM PM PM PM PM PM PM PM PM PM PM PM PM PM PM PM           
  T  T  T  T  T  T  T  T  T  T  T  T  T  T  T  T  H         
-----------------------------------------------------------|
-----------------------------------------------------------|
--------------------------------------------------9--------|
--2--2--2--2--2--2--2--2--2--2--2--2--2--2--2--2--x--------|
--2--2--2--2--2--2--2--2--2--2--2--2--2--2--2--2--7--------|
--2--2--2--2--2--2--2--2--2--2--2--2--2--2--2--2-----------|


  PM PM PM PM PM PM PM PM PM PM PM PM PM PM PM PM           
  T  T  T  T  T  T  T  T  T  T  T  T  T  T  T  T  H         
--------------------------------------------------0--------|
--------------------------------------------------0--------|
--------------------------------------------------0--------|
--2--2--2--2--2--2--2--2--2--2--2--2--2--2--2--2--2--------|
--2--2--2--2--2--2--2--2--2--2--2--2--2--2--2--2--2--------|
--2--2--2--2--2--2--2--2--2--2--2--2--2--2--2--2--2--------|


  PM PM PM PM PM PM PM PM PM PM PM PM PM PM PM PM                  
  T  T  T  T  T  T  T  T  T  T  T  T  T  T  T  T  S S S S S S E    
------------------------------------------------------------------|
------------------------------------------------------------------|
--------------------------------------------------9-9---9-9---9\--|
--2--2--2--2--2--2--2--2--2--2--2--2--2--2--2--2--x-x---x-x---x---|
--2--2--2--2--2--2--2--2--2--2--2--2--2--2--2--2--7-7---7-7---7\--|
--2--2--2--2--2--2--2--2--2--2--2--2--2--2--2--2------------------|


  W                   W                   W                   W                 
-------------------|-------------------|-------------------|-------------------|
-------------------|-------------------|-------------------|-------------------|
-------------------|-------------------|-------------------|-------------------|
--2----------------|--L----------------|--L----------------|--L----------------|
--2----------------|--L----------------|--L----------------|--L----------------|
--2----------------|-------------------|-------------------|-------------------|


-------------------|-------------------|-------------------|
-------------------|-------------------|-------------------|
-------------------|-------------------|-------------------|
-------------------|-------------------|-------------------|
-------------------|-------------------|-------------------|
-------------------|-------------------|-------------------|


-------------------||
-------------------||
-------------------||
-------------------||
-------------------||
-------------------||


guitar 2



      PM PM PM PM PM PM PM PM PM PM PM PM   PM PM PM PM  
      S  S  S  S  S  T  T  S  S  S  S  S  S S  S  S  S   
E||-----------------------------------------------------|
B||-----------------------------------------------------|
G||*----------------------------------------------------|
D||*--2--2--2--2--2--2--2--2--2--2--2--2----2--2--2--2--|
A||---2--2--2--2--2--2--2--2--2--2--2--2----2--2--2--2--|
D||---2--2--2--2--2--2--2--2--2--2--2--2----2--2--2--2--|


  PM PM PM PM PM PM PM PM   PM PM PM PM PM   PM PM  
  S  T  T  S  S  S  S  S  S S  S  S  S  S  S S  S   
---------------------------------------------------|
---------------------------------------------------|
---------------------------------------------------|
--2--2--2--2--2--2--2--2----5--5--5--5--5----5--5--|
--2--2--2--2--2--2--2--2----3--3--3--3--3----3--3--|
--2--2--2--2--2--2--2--2---------------------------|


  PM PM PM   PM PM PM PM PM   PM PM PM PM PM                          
  S  S  S  S S  S  S  S  S  S S  S  S  S  S  S      W                 
------------------------------------------------||-------------------|
------------------------------------------------||-------------------|
-----------------------------------------------*||-------------------|
--5--5--5----5--5--5--5--5----5--5--5--5--5----*||--2----------------|
--3--3--3----3--3--3--3--3----3--3--3--3--3-----||--2----------------|
------------------------------------------------||--2----------------|


                       ^ v ^ v ^ v ^ v ^ v ^ v ^ v ^ v  
  H        H           S S S S S S S S S S S S S S S S  
--------------------|----------------------------------|
--------------------|----------------------------------|
--------------------|----------------------------------|
--5--------2--------|--2-2-2-2-2-2-2-2-2-2-2-2-2-2-2-2-|
--3--------0--------|--2-2-2-2-2-2-2-2-2-2-2-2-2-2-2-2-|
--------------------|--2-2-2-2-2-2-2-2-2-2-2-2-2-2-2-2-|


  ^ v ^ v ^ v ^ v ^ v ^ v ^ v ^ v    ^ v ^ v ^ v ^ v ^ v ^ v ^ v ^ v  
  S S S S S S S S S S S S S S S S    S S S S S S S S S S S S S S S S  
----------------------------------|----------------------------------|
----------------------------------|----------------------------------|
----------------------------------|--7-7-7-7-7-7-7-7-7-7-7-7-7-7-7-7-|
--2-2-2-2-2-2-2-2-2-2-2-2-2-2-2-2-|--5-5-5-5-5-5-5-5-5-5-5-5-5-5-5-5-|
--2-2-2-2-2-2-2-2-2-2-2-2-2-2-2-2-|--3-3-3-3-3-3-3-3-3-3-3-3-3-3-3-3-|
--2-2-2-2-2-2-2-2-2-2-2-2-2-2-2-2-|----------------------------------|


  ^ v ^ v ^ v ^ v ^ v ^ v ^ v ^ v    ^ v ^ v ^ v ^ v ^ v ^ v ^ v ^ v  
  S S S S S S S S S S S S S S S S    S S S S S S S S S S S S S S S S  
----------------------------------|----------------------------------|
----------------------------------|----------------------------------|
--7-7-7-7-7-7-7-7-7-7-7-7-7-7-7-7-|----------------------------------|
--5-5-5-5-5-5-5-5-5-5-5-5-5-5-5-5-|--2-2-2-2-2-2-2-2-2-2-2-2-2-2-2-2-|
--3-3-3-3-3-3-3-3-3-3-3-3-3-3-3-3-|--2-2-2-2-2-2-2-2-2-2-2-2-2-2-2-2-|
----------------------------------|--2-2-2-2-2-2-2-2-2-2-2-2-2-2-2-2-|


  ^ v ^ v ^ v ^ v ^ v ^ v ^ v ^ v    ^ v ^ v ^ v ^ v ^ v ^ v ^ v ^ v  
  S S S S S S S S S S S S S S S S    S S S S S S S S S S S S S S S S  
----------------------------------|----------------------------------|
----------------------------------|----------------------------------|
----------------------------------|--7-7-7-7-7-7-7-7-7-7-7-7-7-7-7-7-|
--2-2-2-2-2-2-2-2-2-2-2-2-2-2-2-2-|--5-5-5-5-5-5-5-5-5-5-5-5-5-5-5-5-|
--2-2-2-2-2-2-2-2-2-2-2-2-2-2-2-2-|--3-3-3-3-3-3-3-3-3-3-3-3-3-3-3-3-|
--2-2-2-2-2-2-2-2-2-2-2-2-2-2-2-2-|----------------------------------|


  ^ v ^ v ^ v ^ v ^ v ^ v ^ v ^ v                                           
  S S S S S S S S S S S S S S S S       S  S  S  S  S  S  S S  S S  S  S  4x
----------------------------------||--------------------------------------||
----------------------------------||--------------------------------------||
--7-7-7-7-7-7-7-7-7-7-7-7-7-7-7-7-||*--12-12-12-12-12-12-12---12---12-12-*||
--5-5-5-5-5-5-5-5-5-5-5-5-5-5-5-5-||*--12-12-12-12-12-12-12---12---12-12-*||
--3-3-3-3-3-3-3-3-3-3-3-3-3-3-3-3-||---10-10-10-10-10-10-10---10---10-10--||
----------------------------------||---10-10-10-10-10-10-10---10---10-10--||


                                  PM PM PM PM PM PM PM PM PM PM PM PM       
  H.           Q       Q    E  E  T  T  T  T  T  T  T  T  T  T  T  T  S. T  
--------------------|-------------------------------------------------0----|
--------------------|-------------------------------------------------0----|
--4------------5----|--L----------------------------------------------0----|
--x------------x----|--L----------2--2--2--2--2--2--2--2--2--2--2--2-------|
--2------------3----|--L----5--5--2--2--2--2--2--2--2--2--2--2--2--2-------|
--------------------|-------5--4--2--2--2--2--2--2--2--2--2--2--2--2-------|


               PM PM PM PM PM PM PM PM PM PM PM PM                    
  T T T T S. T T  T  T  T  T  T  T  T  T  T  T  T  S. T T T T T S. T  
----------0----------------------------------------0------------0----|
----------0----------------------------------------0------------0----|
----------0----------------------------------------0------------0----|
--2------------2--2--2--2--2--2--2--2--2--2--2--2-------2------------|
--2------------2--2--2--2--2--2--2--2--2--2--2--2-------2------------|
--2------------2--2--2--2--2--2--2--2--2--2--2--2-------2------------|


                                  PM PM PM PM PM PM PM PM PM PM PM PM       
  H.           Q       Q    E  E  T  T  T  T  T  T  T  T  T  T  T  T  S. T  
--------------------|-------------------------------------------------0----|
--------------------|-------------------------------------------------0----|
--4------------5----|--L----------------------------------------------0----|
--x------------x----|--L----------2--2--2--2--2--2--2--2--2--2--2--2-------|
--2------------3----|--L----5--5--2--2--2--2--2--2--2--2--2--2--2--2-------|
--------------------|-------5--4--2--2--2--2--2--2--2--2--2--2--2--2-------|


               PM PM PM PM PM PM PM PM PM PM PM PM                    
  T T T T S. T T  T  T  T  T  T  T  T  T  T  T  T  S. T T T T T S. T  
----------0----------------------------------------0------------0----|
----------0----------------------------------------0------------0----|
----------0----------------------------------------0------------0----|
--2------------2--2--2--2--2--2--2--2--2--2--2--2-------2------------|
--2------------2--2--2--2--2--2--2--2--2--2--2--2-------2------------|
--2------------2--2--2--2--2--2--2--2--2--2--2--2-------2------------|


   S  S  S  S  S  S  S  S  S  S  S  S  S  S  S  S  
--------------------------------------------------|
--------------------------------------------------|
--12-12-12-12-12-12-12-12-12-12-12-12-11-11-11-11-|
---x--x--x--x--x--x--x--x--x--x--x--x--x--x--x--x-|
--10-10-10-10-10-10-10-10-10-10-10-10--9--9--9--9-|
--------------------------------------------------|


                 PM PM PM PM PM PM PM PM PM PM PM PM       
   S  S E  E  E  T  T  T  T  T  T  T  T  T  T  T  T  S. T  
-----------------------------------------------------0----|
-----------------------------------------------------0----|
--11-11-7--------------------------------------------0----|
---x--x-x--5-----2--2--2--2--2--2--2--2--2--2--2--2-------|
---9--9-5--5--5--2--2--2--2--2--2--2--2--2--2--2--2-------|
-----------5--4--2--2--2--2--2--2--2--2--2--2--2--2-------|


               PM PM PM PM PM PM PM PM PM PM PM PM                    
  T T T T S. T T  T  T  T  T  T  T  T  T  T  T  T  S. T T T T T S. T  
----------0----------------------------------------0------------0----|
----------0----------------------------------------0------------0----|
----------0----------------------------------------0------------0----|
--2------------2--2--2--2--2--2--2--2--2--2--2--2-------2------------|
--2------------2--2--2--2--2--2--2--2--2--2--2--2-------2------------|
--2------------2--2--2--2--2--2--2--2--2--2--2--2-------2------------|


   S  S  S  S  S  S  S  S  S  S  S  S  S  S  S  S  
--------------------------------------------------|
--------------------------------------------------|
--12-12-12-12-12-12-12-12-12-12-12-12-11-11-11-11-|
---x--x--x--x--x--x--x--x--x--x--x--x--x--x--x--x-|
--10-10-10-10-10-10-10-10-10-10-10-10--9--9--9--9-|
--------------------------------------------------|


                 PM PM PM PM PM PM PM PM PM PM PM PM       
   S  S E  E  E  T  T  T  T  T  T  T  T  T  T  T  T  S. T  
-----------------------------------------------------0----|
-----------------------------------------------------0----|
--11-11-7--------------------------------------------0----|
---x--x-x--5--------2--2--2--2--2--2--2--2--2--2--2-------|
---9--9-5--5--5--2--2--2--2--2--2--2--2--2--2--2--2-------|
-----------5--4--2--2--2--2--2--2--2--2--2--2--2--2-------|


               PM PM PM PM PM PM PM PM PM PM PM PM                    
  T T T T S. T T  T  T  T  T  T  T  T  T  T  T  T  S. T T T T T S. T  
----------0----------------------------------------0------------0----|
----------0----------------------------------------0------------0----|
----------0----------------------------------------0------------0----|
--2------------2--2--2--2--2--2--2--2--2--2--2--2-------2------------|
--2------------2--2--2--2--2--2--2--2--2--2--2--2-------2------------|
--2------------2--2--2--2--2--2--2--2--2--2--2--2-------2------------|


  W                   W                   H        H                            
-------------------|-------------------|--------------------||-----|----|-----||
-------------------|-------------------|--------------------||-----|----|-----||
--0----------------|--L----------------|--L-----------------||*----|----|----*||
--4----------------|--L----------------|--------------------||*----|----|----*||
--2----------------|-------------------|--------------------||-----|----|-----||
--2----------------|-------------------|--------------------||-----|----|-----||


   S  S  S  S  S  S  S  S  S  S  S  S  S  S  S  S  
--------------------------------------------------|
--15-15-15-15-15-15-15-15-15-15-15-15-------------|
--12-12-12-12-12-12-12-12-12-12-12-12-11-11-11-12-|
--------------------------------------------------|
--10-10-10-10-10-10-10-10-10-10-10-10--9--9--9-10-|
--------------------------------------------------|


   S  S  S  S  S  S  S  S  S  S  S  S  S  S  S  S  
--------------------------------------------------|
--------------------------------------------------|
--12-12-12-12-12-12-12-12-12-14-14-14-14-14-14-16-|
--------------------------------------------------|
--10-10-10-10-10-10-10-10-10-12-12-12-12-12-12-14-|
--------------------------------------------------|


  S S S S S S S S S S S S S S S S S S S S S S S S S S S S S S S S  
------------------------------------------------------------------|
------------------------------------------------------------------|
--0-0---0-0---0-0---------5-4-----0-0---0-0---0-0---------5-4-----|
--7-7---7-7---7-7---5-5-5-----7-5-7-7---7-7---7-7---5-5-5-----7-5-|
--5-5---5-5---5-5-----------------5-5---5-5---5-5-----------------|
--5-5---5-5---5-5-----------------5-5---5-5---5-5-----------------|


   S  S  S  S  S  S  S  S  S  S  S  S  S  S  S  S  
--------------------------------------------------|
--15-15-15-15-15-15-15-15-15-15-15-15-------------|
--12-12-12-12-12-12-12-12-12-12-12-12-11-11-11-12-|
--------------------------------------------------|
--10-10-10-10-10-10-10-10-10-10-10-10--9--9--9-10-|
--------------------------------------------------|


   S  S  S  S  S  S  S  S  S  S  S  S  S  S  S  S  
--------------------------------------------------|
--------------------------------------------------|
--12-12-12-12-12-12-12-12-12-14-14-14-14-14-14-16-|
--------------------------------------------------|
--10-10-10-10-10-10-10-10-10-12-12-12-12-12-12-14-|
--------------------------------------------------|


  S S S S S S S S S S S S S S S S S S S S S S S S S S S S S S S S       
------------------------------------------------------------------|----|
------------------------------------------------------------------|----|
--0-0---0-0---0-0---------5-4-----0-0---0-0---0-0---------5-4-----|----|
--7-7---7-7---7-7---5-5-5-----7-5-7-7---7-7---7-7---5-5-5-----7-5-|----|
--5-5---5-5---5-5-----------------5-5---5-5---5-5-----------------|----|
--5-5---5-5---5-5-----------------5-5---5-5---5-5-----------------|----|


   S  S  S  S  S  S  S  S  S  S  S  S  S  S  S  S  
--------------------------------------------------|
--15-15-15-15-15-15-15-15-15-15-15-15-------------|
--12-12-12-12-12-12-12-12-12-12-12-12-11-11-11-12-|
--------------------------------------------------|
--10-10-10-10-10-10-10-10-10-10-10-10--9--9--9-10-|
--------------------------------------------------|


   S  S  S  S  S  S  S  S  S  S  S  S  S  S  S  S  
--------------------------------------------------|
--------------------------------------------------|
--12-12-12-12-12-12-12-12-12-14-14-14-14-14-14-16-|
--------------------------------------------------|
--10-10-10-10-10-10-10-10-10-12-12-12-12-12-12-14-|
--------------------------------------------------|


  S S S S S S S S S S S S S S S S S S S S S S S S S S S S S S S S  
------------------------------------------------------------------|
------------------------------------------------------------------|
--0-0---0-0---0-0---------5-4-----0-0---0-0---0-0---------5-4-----|
--7-7---7-7---7-7---5-5-5-----7-5-7-7---7-7---7-7---5-5-5-----7-5-|
--5-5---5-5---5-5-----------------5-5---5-5---5-5-----------------|
--5-5---5-5---5-5-----------------5-5---5-5---5-5-----------------|


   S  S  S  S  S  S  S  S  S  S  S  S  S  S  S  S  
--------------------------------------------------|
--15-15-15-15-15-15-15-15-15-15-15-15-------------|
--12-12-12-12-12-12-12-12-12-12-12-12-11-11-11-12-|
--------------------------------------------------|
--10-10-10-10-10-10-10-10-10-10-10-10--9--9--9-10-|
--------------------------------------------------|


   S  S  S  S  S  S  S  S  S  S  S  S  S  S  S  S  
--------------------------------------------------|
--------------------------------------------------|
--12-12-12-12-12-12-12-12-12-14-14-14-14-14-14-16-|
--------------------------------------------------|
--10-10-10-10-10-10-10-10-10-12-12-12-12-12-12-14-|
--------------------------------------------------|


  S S S S S S S S S S S S S S S S S S S S S S S S S S S S S S S S  
------------------------------------------------------------------|
------------------------------------------------------------------|
--0-0---0-0---0-0---------5-4-----0-0---0-0---0-0---------5-4-----|
--7-7---7-7---7-7---5-5-5-----7-5-7-7---7-7---7-7---5-5-5-----7-5-|
--5-5---5-5---5-5-----------------5-5---5-5---5-5-----------------|
--5-5---5-5---5-5-----------------5-5---5-5---5-5-----------------|


  W                   H        H         
-------------------|--------------------|
-------------------|--------------------|
-------------------|--------------------|
--2----------------|--5--------2--------|
--2----------------|--3--------0--------|
--2----------------|--------------------|


   ^  ^  ^  ^  ^  ^  ^  ^  ^  ^  ^  ^  ^  ^  ^  ^  
   S  S  S  S  S  S  S  S  S  S  S  S  S  S  S  S  
--------------------------------------------------|
--------------------------------------------------|
--12-12-12-12-12-12-12-12-12-12-12-12-12-12-12-12-|
---x--x--x--x--x--x--x--x--x--x--x--x--x--x--x--x-|
--10-10-10-10-10-10-10-10-10-10-10-10-10-10-10-10-|
--------------------------------------------------|


   ^  ^  ^  ^  ^  ^  ^  ^ ^ ^   ^   ^       
   S  S  S  S  S  S  S  S S S S S S S S  S  
--------------------------------0--------0-|
----------------------------0---0---0----0-|
--12-12-12-12-12-12-12-12-0-9-9-9-9-9-9-12-|
---x--x--x--x--x--x--x--x-x-x-x-x-x-x-x--x-|
--10-10-10-10-10-10-10-10-7-7-7-7-7-7-7-10-|
-------------------------------------------|


   ^  ^  ^  ^  ^  ^  ^  ^  ^  ^  ^  ^  ^  ^  ^  ^  
   S  S  S  S  S  S  S  S  S  S  S  S  S  S  S  S  
--------------------------------------------------|
--------------------------------------------------|
--12-12-12-12-12-12-12-12-12-12-12-12-12-12-12-12-|
---x--x--x--x--x--x--x--x--x--x--x--x--x--x--x--x-|
--10-10-10-10-10-10-10-10-10-10-10-10-10-10-10-10-|
--------------------------------------------------|


   ^  ^  ^  ^  ^  ^  ^  ^                          
   S  S  S  S  S  S  S  S  S  S  S  S  S  S  S  S  
---------------------------0--0--0--0--0--0--0--0-|
---------------------------0--0--0--0--0--0--0--0-|
--12-12-12-12-12-12-12-12-14-14-14-14-14-14-14-16-|
---x--x--x--x--x--x--x--x--x--x--x--x--x--x--x--x-|
--10-10-10-10-10-10-10-10-12-12-12-12-12-12-12-14-|
--------------------------------------------------|


   ^  ^  ^  ^  ^  ^  ^  ^  ^  ^  ^  ^  ^  ^  ^  ^  
   S  S  S  S  S  S  S  S  S  S  S  S  S  S  S  S  
--------------------------------------------------|
--------------------------------------------------|
--12-12-12-12-12-12-12-12-12-12-12-12-12-12-12-12-|
---x--x--x--x--x--x--x--x--x--x--x--x--x--x--x--x-|
--10-10-10-10-10-10-10-10-10-10-10-10-10-10-10-10-|
--------------------------------------------------|


   ^  ^  ^  ^  ^  ^  ^  ^ ^ ^   ^   ^       
   S  S  S  S  S  S  S  S S S S S S S S  S  
--------------------------------0--------0-|
----------------------------0---0---0----0-|
--12-12-12-12-12-12-12-12-0-9-9-9-9-9-9-12-|
---x--x--x--x--x--x--x--x-x-x-x-x-x-x-x--x-|
--10-10-10-10-10-10-10-10-7-7-7-7-7-7-7-10-|
-------------------------------------------|


   ^  ^  ^  ^  ^  ^  ^  ^  ^  ^  ^  ^  ^  ^  ^  ^  
   S  S  S  S  S  S  S  S  S  S  S  S  S  S  S  S  
--------------------------------------------------|
--------------------------------------------------|
--12-12-12-12-12-12-12-12-12-12-12-12-12-12-12-12-|
---x--x--x--x--x--x--x--x--x--x--x--x--x--x--x--x-|
--10-10-10-10-10-10-10-10-10-10-10-10-10-10-10-10-|
--------------------------------------------------|


   ^  ^  ^  ^  ^  ^  ^  ^                          
   S  S  S  S  S  S  S  S  S  S  S  S  S  S  S  S  
---------------------------0--0--0--0--0--0--0--0-|
---------------------------0--0--0--0--0--0--0--0-|
--12-12-12-12-12-12-12-12-14-14-14-14-14-14-14-14-|
---x--x--x--x--x--x--x--x--x--x--x--x--x--x--x--x-|
--10-10-10-10-10-10-10-10-12-12-12-12-12-12-12-12-|
--------------------------------------------------|


  PM PM PM PM PM PM PM PM PM PM PM PM PM PM PM PM           
  T  T  T  T  T  T  T  T  T  T  T  T  T  T  T  T  H         
--------------------------------------------------0--------|
--------------------------------------------------0--------|
--------------------------------------------------0--------|
--2--2--2--2--2--2--2--2--2--2--2--2--2--2--2--2--2--------|
--2--2--2--2--2--2--2--2--2--2--2--2--2--2--2--2--2--------|
--2--2--2--2--2--2--2--2--2--2--2--2--2--2--2--2--2--------|


  PM PM PM PM PM PM PM PM PM PM PM PM PM PM PM PM           
  T  T  T  T  T  T  T  T  T  T  T  T  T  T  T  T  H         
-----------------------------------------------------------|
-----------------------------------------------------------|
--------------------------------------------------9--------|
--2--2--2--2--2--2--2--2--2--2--2--2--2--2--2--2--x--------|
--2--2--2--2--2--2--2--2--2--2--2--2--2--2--2--2--7--------|
--2--2--2--2--2--2--2--2--2--2--2--2--2--2--2--2-----------|


  PM PM PM PM PM PM PM PM PM PM PM PM PM PM PM PM           
  T  T  T  T  T  T  T  T  T  T  T  T  T  T  T  T  H         
--------------------------------------------------0--------|
--------------------------------------------------0--------|
--------------------------------------------------0--------|
--2--2--2--2--2--2--2--2--2--2--2--2--2--2--2--2--2--------|
--2--2--2--2--2--2--2--2--2--2--2--2--2--2--2--2--2--------|
--2--2--2--2--2--2--2--2--2--2--2--2--2--2--2--2--2--------|


  PM PM PM PM PM PM PM PM PM PM PM PM PM PM PM PM           
  T  T  T  T  T  T  T  T  T  T  T  T  T  T  T  T  H         
-----------------------------------------------------------|
-----------------------------------------------------------|
--------------------------------------------------9--------|
--2--2--2--2--2--2--2--2--2--2--2--2--2--2--2--2--x--------|
--2--2--2--2--2--2--2--2--2--2--2--2--2--2--2--2--7--------|
--2--2--2--2--2--2--2--2--2--2--2--2--2--2--2--2-----------|


  PM PM PM PM PM PM PM PM PM PM PM PM PM PM PM PM           
  T  T  T  T  T  T  T  T  T  T  T  T  T  T  T  T  H         
--------------------------------------------------0--------|
--------------------------------------------------0--------|
--------------------------------------------------0--------|
--2--2--2--2--2--2--2--2--2--2--2--2--2--2--2--2--2--------|
--2--2--2--2--2--2--2--2--2--2--2--2--2--2--2--2--2--------|
--2--2--2--2--2--2--2--2--2--2--2--2--2--2--2--2--2--------|


  PM PM PM PM PM PM PM PM PM PM PM PM PM PM PM PM           
  T  T  T  T  T  T  T  T  T  T  T  T  T  T  T  T  H         
-----------------------------------------------------------|
-----------------------------------------------------------|
--------------------------------------------------9--------|
--2--2--2--2--2--2--2--2--2--2--2--2--2--2--2--2--x--------|
--2--2--2--2--2--2--2--2--2--2--2--2--2--2--2--2--7--------|
--2--2--2--2--2--2--2--2--2--2--2--2--2--2--2--2-----------|


  PM PM PM PM PM PM PM PM PM PM PM PM PM PM PM PM           
  T  T  T  T  T  T  T  T  T  T  T  T  T  T  T  T  H         
--------------------------------------------------0--------|
--------------------------------------------------0--------|
--------------------------------------------------0--------|
--2--2--2--2--2--2--2--2--2--2--2--2--2--2--2--2--2--------|
--2--2--2--2--2--2--2--2--2--2--2--2--2--2--2--2--2--------|
--2--2--2--2--2--2--2--2--2--2--2--2--2--2--2--2--2--------|


  PM PM PM PM PM PM PM PM PM PM PM PM PM PM PM PM                              
  T  T  T  T  T  T  T  T  T  T  T  T  T  T  T  T  S S S S S S E                
------------------------------------------------------------------|-----|-----|
------------------------------------------------------------------|-----|-----|
--------------------------------------------------9-9---9-9---9\--|-----|-----|
--2--2--2--2--2--2--2--2--2--2--2--2--2--2--2--2--x-x---x-x---x---|-----|-----|
--2--2--2--2--2--2--2--2--2--2--2--2--2--2--2--2--7-7---7-7---7\--|-----|-----|
--2--2--2--2--2--2--2--2--2--2--2--2--2--2--2--2------------------|-----|-----|


-----|-----|-----|-----|-----|-----||
-----|-----|-----|-----|-----|-----||
-----|-----|-----|-----|-----|-----||
-----|-----|-----|-----|-----|-----||
-----|-----|-----|-----|-----|-----||
-----|-----|-----|-----|-----|-----||


I do this when they  start singing note to self I miss you ....

-------||------------------------------|------------------------------|
-------||---8----8----10---12---8----8-|--L---10---12---8----8----10--|
-------||*-----0----0--------------0---|----0--------------0----0-----|
-------||*-----------------------------|------------------------------|
-------||------------------------------|------------------------------|
-------||------------------------------|------------------------------|


  S  E  S  E  S  E  S  E  S  E.                                               
----------------------------------||------|------|------|------|------|------|
----12----13----12----10----12----||------|------|------|------|------|------|
--0-----0-----0-----0-----0------*||------|------|------|------|------|------|
---------------------------------*||------|------|------|------|------|------|
----------------------------------||------|------|------|------|------|------|
----------------------------------||------|------|------|------|------|------|


ending guitar

-------|-------|-------|-------|-------|-------|-------------------------|
-------|-------|-------|-------|-------|-------|-------------------------|
-------|-------|-------|-------|-------|-------|--------------3----------|
-------|-------|-------|-------|-------|-------|-------------------------|
-------|-------|-------|-------|-------|-------|-----2-----2----------2--|
-------|-------|-------|-------|-------|-------|--0-----0----------0-----|


  E  E  Q    E  E  E  E     Q    E  E  E  E  E  E     E  E  E  Q    E  E  E   
-------------------------|-------------------------|-------------------------|
-------------------------|-------------------------|-------------------------|
--------4----------------|--3----------------4-----|-------------------------|
-------------------------|-------------------------|-----------8-------------|
-----2----------2-----2--|----------2-----2--------|--6-----6----------6-----|
--0----------0-----0-----|-------0-----0--------4--|-----4----------4-----4--|


  E  Q    E  E  E  E  E     E  E  E  E  Q    E  E     E  E  Q    E  E  E  E   
-------------------------|-------------------------|-------------------------|
-------------------------|-------------------------|-------------------------|
-------------------------|-------------------------|--------3----------------|
-----9----------------8--|--------------9----------|-------------------------|
--6----------6-----6-----|-----6-----6----------2--|-----2----------2-----2--|
----------4-----4--------|--4-----4----------0-----|--0----------0-----0-----|


  Q    E  E  E  E  Q      
------------------------||
------------------------||
--4----------------3----||
------------------------||
----------2-----2-------||
-------0-----0----------||




Duration Legend
---------------
W - whole
H - half
Q - quarter
E - 8th
S - 16th
T - 32nd
X - 64th
. - note dotted
|-n-|  - n-tuplets


Tablature Legend
----------------
L - tied note
x - dead note
g - grace note
(n) - ghost note
> - accentuded note
NH - natural harmonic
AH - artificial harmonic
TH - tapped harmonic
SH - semi harmonic
PH - pitch harmonic
h - hammer on
p - pull off
b - bend
br - bendRelease
pb - preBend
pbr - preBendRelease
brb - bendReleaseBend
\n/ - tremolo bar dip
\n - tremolo bar dive
-/n - tremolo bar Release up
/n\ - tremolo bar inverted dip
/n - tremolo bar return
-\n - tremolo bar Release down
S - shift slide
s - legato slide
/ -  slide into from below or out of upwards
\ -  slide into from above or out of downwards
~ - vibrato
W - wide vibrato
tr - trill
TP - tremolo picking
T - tapping
S - slap
P - pop
< - fade in
^ - brush up
Suggest correction
Creating personal tab
Creating personal tab
You can edit any tab online and save it as your Personal.

You can edit, replace or remove any tab part or add personal notes – all changes will be seen only by you.

Personal tabs can be accessed anytime from any device, even offline.
Learn more »
Give kudos to tab author, rate the tab!
1 2 3 4 5
comments
print report bad tab
3 comments total.
0 reply
Rock_on_LP 30 Oct 17, 2006 03:36 PM

you can't get any better than that

0 reply
Liam 1,995 Mar 16, 2007 02:28 PM

eh?

0 reply
Liam 1,995 Mar 16, 2007 02:29 PM

i dont think there is a more confusing way to tab than this. everything is everywhere.

guest
You may want to rate the tab now too:
select rating
Wanna post a correction for this tab? Suggest correction