Oops, an error
Loading. Please wait.

Populace In Two tab

version 2
version 2

Whole song

Interactive

5,518 views 3 this week
1 commentread comment
1 2 3 4 5
x 4
add to favorites
×
Save as Personal and add changes to this tab that will be seen only by you. Learn more ›
×
You can save this tab as Personal to edit and correct it or add notes. All changes will be seen only by you. Learn more »
launch autoscroll
font size
0
reset
how to read this tab
guitar tuner
edit
Autoscroll
slow
fast
+/-
esc
set tempo
stop
Populace In Two
by From First To Last

intro
both guitars
e|-0~--|--0-00-0-0--4-44-4-4----|-----------|
B|-2~--|--2-22-2-2--2-22-2-2----|--2h3-3p2--|
G|-2~--|--2-22-2-2--2-22-2-2----|--2~--2~---|
D|-0~--|--0-00-0-0--0-00-0-0-x6-|-----------|
A|-----|------------------------|-----------|
D|-----|------------------------|-----------|

verse 1 x3
guitar 1
e|--0-00-00-00-00-------0-00-00-00-00-------|
B|--2-22-22-22-22-------2-22-22-22-22-------|
G|--2-22-22-22-22-------2-22-22-22-22-------|
D|--0-00-00-00-00-------0-00-00-00-00-------|
A|------------------------------------------|
D|------------------------------------------|

e|------------------------------0-----------|
B|---2-3-3p2--2-3-3p2--2-3-3p2---3p2-3-3p2--|
G|--2---2----2---2----2---2----2------2-----|
D|------------------------------------------|
A|------------------------------------------|
D|------------------------------------------|

guitar 2
e|------------------------------------------|
B|------------------------------------------|
G|--6-66-66-66-66---------------------------|
D|--7-77-77-77-77---------------------------|
A|--5-55-55-55-55---------------------------|
D|----------------------0-00-00-00-00-------|

e|------------------------------------------|
B|------------------------------------------|
G|------------------------------------------|
D|------------------------------------------|
A|------------------------------------------|
D|--4-44--4---6-6-66--7-77--7---0-0-000-----|

chorus
guitar 1
e|------5-------5-------4-----0-0-0-0-0-0---|
B|----5---5---5---5---5---5---2-2-2-2-2-2---|
G|--2-------2-------2---------2-2-2-2-2-2---|
D|------------------------------------------|
A|------------------------------------------|
D|------------------------------------------|

guitar 2
e|------------------------------------------|
B|--2222222222------------------------------|
G|--2222222222---4444444444---7777777777----|
D|--0000000000---2222222222---4444444444----|
A|--0000000000---2222222222---4444444444----|
D|--0000000000---2222222222---4444444444----|

verse 2
guitar 1
e|---------------------|---------0----------|
B|---2-3-3--2-3-3p2----|--2-3-3---3p2-3-3p2-|
G|--2--2-2-2--2-2------|-2--2-2-2------2----|
D|------------------x3-|--------------------|
A|---------------------|--------------------|
D|---------------------|--------------------|

extended verse x2
both guitars
e|--0-0-0-0-0-0-000--0-0-0-0-0-0-000--------|
B|--2-2-2-2-2-2-222--2-2-2-2-2-2-222--------|
G|--2-2-2-2-2-2-222--2-2-2-2-2-2-222--------|
D|--0-0-0-0-0-0-000--0-0-0-0-0-0-000--------|
A|--0-0-0-0-0-0-000--0-0-0-0-0-0-000--------|
D|--0-0-0-0-0-0-000--0-0-0-0-0-0-000--------|

guitar 1 (wrong rhythm here, I had to make it fit)
e|------------------------------------------|
B|------------------------------------------|
G|--141414-131313-141414-999-111111---------|
D|---x-x-x--x-x-x--x-x-x-xxx--x-x-x---------|
A|--121212-121212-121212-777--9-9-9---------|
D|------------------------------------------|

guitar 2
e|------------------------------------------|
B|------------------------------------------|
G|------------------------------------------|
D|--4-4-444-6-66-6-666-7-7-777-7-000-0-000--|
A|--4-4-444-6-66-6-666-7-7-777-7-000-0-000--|
D|--4-4-444-6-66-6-666-7-7-777-7-000-0-000--|

play chorus

interlude
guitar 1 plays a little something 
  here but its hard to hear

guitar 2
e|------------------------------------------|
B|------------------------------------------|
G|------------------------------------------|
D|------------------------------------------|
A|-00000000--------0000-5555-4444-----------|
D|---------44444444---------------44444444--|

e|------------------------------------------|
B|------------------------------------------|
G|------------------------------------------|
D|------0----------0--------0--------0------|
A|--------0---------------------------------|
D|--0-0-----0--0-0---0--4-4---4--6-6---6----|

solo
guitar 1
e|------------------------------------------|
B|------------------------------------------|
G|--6h7p6--4h6p4--2h4p2--1h2p1--1~----------|
D|------------------------------------------|
A|------------------------------------------|
D|------------------------------------------|

e|------------------------------------------|
B|------------------------------------------|
G|------------------------------------------|
D|--2-4-444--2-4-444-2----------------------|
A|------------------------------------------|
D|------------------------------------------|

e|------------------------------------------|
B|------------------------------------------|
G|--6h7p6--4h6p4--2h4p2--1h2p1--1~----------|
D|------------------------------------------|
A|------------------------------------------|
D|------------------------------------------|

e|------------------------------------------|
B|------------------------------------------|
G|--9-11-111111--9-11-111111-9--------------|
D|------------------------------------------|
A|------------------------------------------|
D|------------------------------------------|

e|------------------------------------------|
B|--/10-------------------------------------|
G|----------------9-------------------------|
D|-------12-11--9---11-12~~~----------------|
A|------------------------------------------|
D|------------------------------------------|

guitar 2
e|------------------------------------------|
B|------------------------------------------|
G|------------------------------------------|
D|--7777777777777777----7777766677777666----|
A|--7777777777777777----4444444444444444----|
D|--7777777777777777----4444444444444444----|

e|------------------------------------------|
B|------------------------------------------|
G|----------77777777------------------------|
D|--77777777xxxxxxxx----7777766677777666----|
A|--7777777755555555----4444444444444444----|
D|--77777777------------4444444444444444----|

e|------------------------0~~~~-------------|
B|-------------2~~~~------2~~~~-------------|
G|-------------1~~~~------2~~~~-------------|
D|--6~~~~------0~~~~------0~~~~-------------|
A|--4~~~~------0~~~~------0~~~~-------------|
D|--4~~~~------0~~~~------0~~~~-------------|

play chorus

outro
guitar 1
e|--0-0-0-0-0-0-0-0--|
B|--2-2-2-2-2-2-2-2--|
G|--2-2-2-2-2-2-2-2--|
D|--0-0-0-0-0-0-0-0--|
A|--0-0-0-0-0-0-0-0--|
D|--0-0-0-0-0-0-0-0--|

guitar 2
e|-------------------|
B|-------------------|
G|-------------------|
D|--0-0-0-0-4-4-4-4--|
A|--0-0-0-0-4-4-4-4--|
D|--0-0-0-0-4-4-4-4--|

the end
Suggest correction
Creating personal tab
Creating personal tab
You can edit any tab online and save it as your Personal.

You can edit, replace or remove any tab part or add personal notes – all changes will be seen only by you.

Personal tabs can be accessed anytime from any device, even offline.
Learn more »
comments
print report bad tab
1 comment total.
0 reply
PersonIsTommy 10 Dec 26, 2008 09:55 AM

this sounds completely perfect to me

5 stars

guest
You may want to rate the tab now too:
select rating
Wanna post a correction for this tab? Suggest correction