Oops, an error
Loading. Please wait.

Ride The Wings Of Pestilence bass

version 1
version 1

Whole song

2,162 views 1 this week
no commentswrite comment
1 2 3 4 5
2 more votes to show rating
add to favorites
×
Save as Personal and add changes to this tab that will be seen only by you. Learn more ›
×
You can save this tab as Personal to edit and correct it or add notes. All changes will be seen only by you. Learn more »
launch autoscroll
font size
0
reset
guitar tuner
edit
Autoscroll
slow
fast
+/-
esc
set tempo
stop
Author
Difficulty
Ride the wings of pestilence                           


                                                              From First To Last
bass
none



                     W                   S S S S S S S S S S S S S S E   
G||-------|-------|-------------------|---------------------------------|
D||-------|-------|-------------------|---------------------------------|
A||-------|-------|-------------------|---------------------------------|
D||-------|-------|--1----------------|--1-1----------------------------|


  E  E  E  E  E  E  E  E     E  E  E  E  E  E  E  E   
--------------------------|--------------------------|
--------------------------|--------------------------|
--------------------------|--------------------------|
--1--1--1--1--1--1--1--1--|--5--5--5--5--8--8--8--8--|


  E  E  E  E  E  E  E  E     E  E  E  E  E  E  E  E   
--------------------------|--------------------------|
--------------------------|--------------------------|
--------------------------|--------------------------|
--1--1--1--1--1--1--1--1--|--5--5--5--5--8--8--8--8--|


  S S S S S S S S S S S S S S S S    S S S S S S S S S S S S S S S S  
----------------------------------|----------------------------------|
----------------------------------|----------------------------------|
----------------------------------|----------------------------------|
--1-1---1-1-1-1---1-1---1-1-1-1---|--5-5---5-5-5-5---8-8-8-8-8-8-8-8-|


  S S S S S S S S S S S S S S S S    S S S S S S S S S S S S S S S S  
----------------------------------|----------------------------------|
----------------------------------|----------------------------------|
----------------------------------|----------------------------------|
--1-1---1-1-1-1---1-1---1-1-1-1---|--5-5---5-5-5-5---8-8-8-8-8-8-8-8-|


  W                   W                   S S E  E  E  S S E  S S E   
-------------------|-------------------|-----------------------------|
-------------------|-------------------|-----------------------------|
-------------------|-------------------|-----------------------------|
--1----------------|--1----------------|--5-5-5--5--5--5-5-5--5-5-5--|


  S S E  E  E  S S E  S S E     S S E  E  E  S S E  S S E   
-----------------------------|-----------------------------|
-----------------------------|-----------------------------|
-----------------------------|-----------------------------|
--1-1-1--1--1--1-1-1--1-1-1--|--5-5-5--5--5--5-5-5--5-5-5--|


  S S E  E  E  S S E  S S E     S S E  E  E  S S E  S S E   
-----------------------------|-----------------------------|
-----------------------------|-----------------------------|
-----------------------------|-----------------------------|
--1-1-1--1--1--1-1-1--1-1-1--|--5-5-5--5--5--5-5-5--5-5-5--|


  S S E  E  E  S S E  S S E     S S E  E  E  S S E  S S E   
-----------------------------|-----------------------------|
-----------------------------|-----------------------------|
-----------------------------|-----------------------------|
--1-1-1--1--1--1-1-1--1-1-1--|--5-5-5--5--5--5-5-5--5-5-5--|


  S S E  E  E  S S E  S S E     H        Q       H        Q     
-----------------------------|----------------|----------------|
-----------------------------|----------------|----------------|
-----------------------------|----------------|----------------|
--1-1-1--1--1--1-1-1--1-1-1--|--5--------L----|--5--------L----|


  H        Q       E  E  E  E  E  E     H        Q       H        Q     
----------------|--------------------|----------------|----------------|
----------------|--------------------|----------------|----------------|
----------------|--------------------|----------------|----------------|
--5--------L----|--1--1--1--1--1-----|--5--------L----|--5--------L----|


  H        Q       E  E  E  E  E  E     Q    E  E  Q       E  E  E  E  Q     
----------------|--------------------|------------------|-------------------|
----------------|--------------------|------------------|-------------------|
----------------|--------------------|------------------|-------------------|
--5--------L----|--1--1--1--1--1-----|--5----5--5--5----|--1--1--1--1--1----|


  Q    E  E  Q       Q    E  E  Q       Q    E  E  Q       Q    E  E  Q     
------------------|------------------|------------------|------------------|
------------------|------------------|------------------|------------------|
--3----3--3--3----|--5----5--5--5----|------------------|--6---------------|
------------------|------------------|--8----8--8--8----|-------8--8--8----|


  E  E  E  E  E  E     E  E  E  E  E  E     Q    E  E  Q     
--------------------|--------------------|------------------|
--------------------|--------------------|------------------|
--------------------|--------------------|------------------|
--0--0--0--0--8--7--|--0--0--0--0--7--5--|--5----5--5--5----|


  E  E  E  E  Q       Q    E  E  Q       Q    E  E  Q       Q    E  E  Q     
-------------------|------------------|------------------|------------------|
-------------------|------------------|------------------|------------------|
-------------------|--3----3--3--3----|--5----5--5--5----|------------------|
--1--1--1--1--1----|------------------|------------------|--8----8--8--8----|


  Q    E  E  Q       E  E  E  E  E  E     E  E  E  E  E  E   
------------------|--------------------|--------------------|
------------------|--------------------|--------------------|
--6----6--8--6----|--------------------|--------------------|
------------------|--0--0--0--0--8--7--|--0--0--0--0--7--5--|


-------------------|-------------------|-------------------|-------------------|
-------------------|-------------------|-------------------|-------------------|
-------------------|-------------------|-------------------|-------------------|
-------------------|-------------------|-------------------|-------------------|


  Q    Q    Q       Q    Q    Q       Q    Q    Q       Q    Q    Q     
-----------------|-----------------|-----------------|-----------------|
-----------------|-----------------|-----------------|-----------------|
-----------------|-----------------|-----------------|-----------------|
--5----5----5----|--5----5----5----|--5----5----5----|--5----5----5----|


  Q    Q    Q       Q    Q    Q       Q    Q    Q       E   E  E   E  E   E   
-----------------|-----------------|-----------------|-----------------------|
-----------------|-----------------|-----------------|-----------------------|
-----------------|-----------------|-----------------|--1p--0----------------|
--1----1----1----|--1----1----1----|--1----1----1----|---------3p--0--0h--1--|


  Q    Q    Q       Q    Q    Q       Q    Q    Q       Q    Q    Q     
-----------------|-----------------|-----------------|-----------------|
-----------------|-----------------|-----------------|-----------------|
-----------------|-----------------|-----------------|-----------------|
--5----5----5----|--5----5----5----|--5----5----5----|--5----5----5----|


  Q    Q    Q       Q    Q    Q       Q    Q    Q       E   E  E   E  E   E   
-----------------|-----------------|-----------------|-----------------------|
-----------------|-----------------|-----------------|-----------------------|
-----------------|-----------------|-----------------|--1p--0----------------|
--1----1----1----|--1----1----1----|--1----1----1----|---------3p--0--0h--1--|


  E  E  E  E  Q       E  E  E  E  Q       E  E  E  E  Q       E  E  E  E  Q     
-------------------|-------------------|-------------------|-------------------|
-------------------|-------------------|-------------------|-------------------|
-------------------|-------------------|-------------------|-------------------|
--5--5--5--5--5----|--5--5--5--5--5----|--5--5--5--5--5----|--5--5--5--5--5----|


  E  E  E  E  Q       E  E  E  E  Q       E  E  E  E  Q     
-------------------|-------------------|-------------------|
-------------------|-------------------|-------------------|
-------------------|-------------------|-------------------|
--1--1--1--1--1----|--1--1--1--1--1----|--1--1--1--1--1----|


  E   E  E   E  E   E     E  E  E  E  Q       E  E  E  E  Q     
-----------------------|-------------------|-------------------|
-----------------------|-------------------|-------------------|
--1p--0----------------|-------------------|-------------------|
---------3p--0--0h--1--|--5--5--5--5--5----|--5--5--5--5--5----|


  E  E  E  E  Q       E  E  E  E  Q       E  E  E  E  Q       E  E  E  E  Q     
-------------------|-------------------|-------------------|-------------------|
-------------------|-------------------|-------------------|-------------------|
-------------------|-------------------|-------------------|-------------------|
--5--5--5--5--5----|--5--5--5--5--5----|--1--1--1--1--1----|--1--1--1--1--1----|


  E  E  E  E  Q       E   E  E   E  E   E     Q    E  E  Q     
-------------------|-----------------------|------------------|
-------------------|-----------------------|------------------|
-------------------|--1p--0----------------|------------------|
--1--1--1--1--1----|---------3p--0--0h--1--|--5----5--5--5----|


  Q    E  E  Q       Q    E  E  Q       E  E  E  E  Q       Q    E  E  Q     
------------------|------------------|-------------------|------------------|
------------------|------------------|-------------------|------------------|
------------------|------------------|-------------------|------------------|
--5----5--5--5----|--5----5--5--5----|--1--1--1--1--1----|--5----5--5--5----|


  Q    E  E  Q       Q.     Q.        Q    Q    Q       Q    E  E  Q     
------------------|----------------|-----------------|------------------|
------------------|----------------|-----------------|------------------|
------------------|----------------|-------3----L----|------------------|
--5----5--5--5----|--5------3------|--0--------------|--5----5--5--5----|


  Q    E  E  Q       Q    E  E  Q       E  E  E  E  Q       Q    E  E  Q     
------------------|------------------|-------------------|------------------|
------------------|------------------|-------------------|------------------|
------------------|------------------|-------------------|------------------|
--5----5--5--5----|--5----5--5--5----|--1--1--1--1--1----|--5----5--5--5----|


  Q    E  E  Q       Q.     Q.        Q    Q    Q       Q    E  E  Q     
------------------|----------------|-----------------|------------------|
------------------|----------------|-----------------|------------------|
------------------|----------------|-------3----L----|------------------|
--5----5--5--5----|--5------3------|--0--------------|--5----5--5--5----|


  Q    E  E  Q       Q    E  E  Q       E  E  E  E  Q       Q    E  E  Q     
------------------|------------------|-------------------|------------------|
------------------|------------------|-------------------|------------------|
------------------|------------------|-------------------|------------------|
--5----5--5--5----|--5----5--5--5----|--1--1--1--1--1----|--5----5--5--5----|


  Q    E  E  Q       Q.     Q.        Q    Q    Q       E  E  E  E  E  E   
------------------|----------------|-----------------|--------------------|
------------------|----------------|-----------------|--------------------|
------------------|----------------|-------3----L----|--------------------|
--5----5--5--5----|--5------3------|--0--------------|--5--5--5--5--5--5--|


  E  E  E  E  E  E     E  E  E  E  E  E     E  E  E  E  E  E   
--------------------|--------------------|--------------------|
--------------------|--------------------|--------------------|
--------------------|--------------------|--------------------|
--5-----------------|--5--5--5--5--5--5--|--5-----------------|


  E  E  E  E  E  E     E  E  E  E  E  E     E  E  E  E  E  E   
--------------------|--------------------|--------------------|
--------------------|--------------------|--------------------|
--------------------|--------------------|--------------------|
--5--5--5--5--5--5--|--5-----------------|--5--5--5--5--5--5--|


  E  E  E  E  E  E     Q    E  E  Q       E  E  E  E  Q       Q    E  E  Q     
--------------------|------------------|-------------------|------------------|
--------------------|------------------|-------------------|------------------|
--------------------|------------------|-------------------|--3----3--3--3----|
--5-----------------|--5----5--5--5----|--1--1--1--1--1----|------------------|


  Q    E  E  Q       Q    E  E  Q       Q    E  E  Q       E  E  E  E  E  E   
------------------|------------------|------------------|--------------------|
------------------|------------------|------------------|--------------------|
--5----5--5--5----|------------------|--6---------------|--------------------|
------------------|--8----8--8--8----|-------8--8--8----|--0--0--0--0--8--7--|


  E  E  E  E  E  E     Q    E  E  Q       E  E  E  E  Q       Q    E  E  Q     
--------------------|------------------|-------------------|------------------|
--------------------|------------------|-------------------|------------------|
--------------------|------------------|-------------------|--3----3--3--3----|
--0--0--0--0--7--5--|--5----5--5--5----|--1--1--1--1--1----|------------------|


  Q    E  E  Q       Q    E  E  Q       Q    E  E  Q       E  E  E  E  E  E   
------------------|------------------|------------------|--------------------|
------------------|------------------|------------------|--------------------|
--5----5--5--5----|------------------|--6----6--8--6----|--------------------|
------------------|--8----8--8--8----|------------------|--0--0--0--0--8--7--|


  E  E  E  E  E  E     Q    E  E  Q       E  E  E  E  Q       Q    E  E  Q     
--------------------|------------------|-------------------|------------------|
--------------------|------------------|-------------------|------------------|
--------------------|------------------|-------------------|--3----3--3--3----|
--0--0--0--0--7--5--|--5----5--5--5----|--1--1--1--1--1----|------------------|


  Q    E  E  Q       Q    E  E  Q       Q    E  E  Q       E  E  E  E  E  E   
------------------|------------------|------------------|--------------------|
------------------|------------------|------------------|--------------------|
--5----5--5--5----|------------------|--6---------------|--------------------|
------------------|--8----8--8--8----|-------8--8--8----|--0--0--0--0--8--7--|


  E  E  E  E  E  E     Q    E  E  Q       E  E  E  E  Q       Q    E  E  Q     
--------------------|------------------|-------------------|------------------|
--------------------|------------------|-------------------|------------------|
--------------------|------------------|-------------------|--3----3--3--3----|
--0--0--0--0--7--5--|--5----5--5--5----|--1--1--1--1--1----|------------------|


  Q    E  E  Q       Q    E  E  Q       Q    E  E  Q       E  E  E  E  E  E   
------------------|------------------|------------------|--------------------|
------------------|------------------|------------------|--------------------|
--5----5--5--5----|------------------|--6----6--8--6----|--------------------|
------------------|--8----8--8--8----|------------------|--0--0--0--0--8--7--|


  E  E  E  E  E  E     E  E  E  E  E  E     E  E  E  E  E  E   
--------------------|--------------------|--------------------|
--------------------|--------------------|--------------------|
--------------------|--------------------|--------------------|
--0--0--0--0--7--5--|--0--0--0--0--8--7--|--0--0--0--0--7--5--|


  E  E  E  E  E  E     E  E  E  E  E  E     E  E  E  E  E  E   
--------------------|--------------------|--------------------|
--------------------|--------------------|--------------------|
--------------------|--------------------|--------------------|
--5--5--5--5--5--5--|--5--5--5--5--5--5--|--5--5--------------|


  Q    Q    Q       E  E  E  E  E  E     E  E  E  E  E  E   
-----------------|--------------------|--------------------|
-----------------|--------------------|--------------------|
-----------------|--------------------|--------------------|
-----------------|--5--5--5--5--5--5--|--5--5--5--5--5--5--|


  E  E  E  E  E  E     Q    Q    Q       E  E  E  E  E  E   
--------------------|-----------------|--------------------|
--------------------|-----------------|--------------------|
--------------------|-----------------|--------------------|
--5--5-----------L--|-----------------|--5--5--5--5--5--5--|


  E  E  E  E  E  E     E  E  E  E  E  E     Q    Q    Q     
--------------------|--------------------|-----------------|
--------------------|--------------------|-----------------|
--------------------|--------------------|-----------------|
--5--5--5--5--5--5--|--5--5-----------L--|-----------------|


  E  E  E  E  E  E     E  E  E  E  E  E     E  E  E  E  E  E   
--------------------|--------------------|--------------------|
--------------------|--------------------|--------------------|
--------------------|--------------------|--------------------|
--5--5--5--5--5--5--|--5--5--5--5--5--5--|--5--5-----------L--|


  Q    Q    Q       E  E  E  E  E  E     E  E  E  E  E  E   
-----------------|--------------------|--------------------|
-----------------|--------------------|--------------------|
-----------------|--------------------|--------------------|
-----------------|--5--5--5--5--5--5--|--5--5--5--5--5--5--|


  E  E  E  E  E  E     Q    Q    Q       E  E  E  E  E  E   
--------------------|-----------------|--------------------|
--------------------|-----------------|--------------------|
--------------------|-----------------|--------------------|
--5--5-----------L--|-----------------|--5--5--5--5--5--5--|


  E  E  E  E  E  E     E  E  E  E  E  E     Q    Q    Q     
--------------------|--------------------|-----------------|
--------------------|--------------------|-----------------|
--------------------|--------------------|-----------------|
--5--5--5--5--5--5--|--5--5-----------L--|-----------------|


  E  E  E  E  E  E     E  E  E  E  E  E     E  E  E  E  E  E   
--------------------|--------------------|--------------------|
--------------------|--------------------|--------------------|
--------------------|--------------------|--------------------|
--5--5--5--5--5--5--|--5--5--5--5--5--5--|--5--5-----------L--|


  Q    Q    Q       E  E  E  E  E  E     E  E  E  E  E  E   
-----------------|--------------------|--------------------|
-----------------|--------------------|--------------------|
-----------------|--------------------|--------------------|
-----------------|--5--5--5--5--5--5--|--5--5--5--5--5--5--|


  E  E  E  E  E  E     Q    Q    Q       E  E  E  E  E  E   
--------------------|-----------------|--------------------|
--------------------|-----------------|--------------------|
--------------------|-----------------|--------------------|
--5--5-----------L--|-----------------|--5--5--5--5--5--5--|


  E  E  E  E  E  E     E  E  E  E  E  E     Q    Q    Q     
--------------------|--------------------|-----------------|
--------------------|--------------------|-----------------|
--------------------|--------------------|-----------------|
--5--5--5--5--5--5--|--5--5-----------L--|-----------------|


  E  E  E  E  E  E     E  E  E  E  E  E     E  E  E  E  E  E   
--------------------|--------------------|--------------------|
--------------------|--------------------|--------------------|
--------------------|--------------------|--------------------|
--5--5--5--5--5--5--|--5--5--5--5--5--5--|--5--5-----------L--|


  Q    Q    Q       E  E  E  E  E  E     E  E  E  E  E  E   
-----------------|--------------------|--------------------|
-----------------|--------------------|--------------------|
-----------------|--------------------|--------------------|
-----------------|--5--5--5--5--5--5--|--5--5--5--5--5--5--|


  E  E  E  E  E  E     Q    Q    Q       E  E  E  E  E  E   
--------------------|-----------------|--------------------|
--------------------|-----------------|--------------------|
--------------------|-----------------|--------------------|
--5--5-----------L--|-----------------|--5--5--5--5--5--5--|


  E  E  E  E  E  E     E  E  E  E  E  E     Q    Q    Q     
--------------------|--------------------|-----------------|
--------------------|--------------------|-----------------|
--------------------|--------------------|-----------------|
--5--5--5--5--5--5--|--5--5-----------L--|-----------------|


  E  E  E  E  E  E     E  E  E  E  E  E     E  E  E  E  E  E   
--------------------|--------------------|--------------------|
--------------------|--------------------|--------------------|
--------------------|--------------------|--------------------|
--5--5--5--5--5--5--|--5--5--5--5--5--5--|--5--5-----------L--|


  Q    Q    Q       E  E  E  E  E  E     E  E  E  E  E  E   
-----------------|--------------------|--------------------|
-----------------|--------------------|--------------------|
-----------------|--------------------|--------------------|
-----------------|--5--5--5--5--5--5--|--5--5--5--5--5--5--|


  E  E  E  E  E  E     Q    Q    Q       E  E  E  E  E  E   
--------------------|-----------------|--------------------|
--------------------|-----------------|--------------------|
--------------------|-----------------|--------------------|
--5--5-----------L--|-----------------|--5--5--5--5--5--5--|


  E  E  E  E  E  E     E  E  E  E  E  E     Q    Q    Q     
--------------------|--------------------|-----------------|
--------------------|--------------------|-----------------|
--------------------|--------------------|-----------------|
--5--5--5--5--5--5--|--5--5-----------L--|-----------------|


  E  E  E  E  E  E     E  E  E  E  E  E     E  E  E  E  E  E   
--------------------|--------------------|--------------------|
--------------------|--------------------|--------------------|
--------------------|--------------------|--------------------|
--5--5--5--5--5--5--|--5--5--5--5--5--5--|--5--5-----------L--|


  Q    Q    Q       E  E  E  E  E  E     E  E  E  E  E  E   
-----------------|--------------------|--------------------|
-----------------|--------------------|--------------------|
-----------------|--------------------|--------------------|
-----------------|--5--5--5--5--5--5--|--5--5--5--5--5--5--|


  E  E  E  E  E  E     Q    Q    Q       E  E  E  E  E  E   
--------------------|-----------------|--------------------|
--------------------|-----------------|--------------------|
--------------------|-----------------|--------------------|
--5--5-----------L--|-----------------|--5--5--5--5--5--5--|


  E  E  E  E  E  E     E  E  E  E  E  E     Q    Q    Q      
--------------------|--------------------|-----------------||
--------------------|--------------------|-----------------||
--------------------|--------------------|-----------------||
--5--5--5--5--5--5--|--5--5-----------L--|-----------------||




Duration Legend
---------------
W - whole
H - half
Q - quarter
E - 8th
S - 16th
T - 32nd
X - 64th
. - note dotted
|-n-|  - n-tuplets


Tablature Legend
----------------
L - tied note
x - dead note
g - grace note
(n) - ghost note
> - accentuded note
NH - natural harmonic
AH - artificial harmonic
TH - tapped harmonic
SH - semi harmonic
PH - pitch harmonic
h - hammer on
p - pull off
b - bend
br - bendRelease
pb - preBend
pbr - preBendRelease
brb - bendReleaseBend
\n/ - tremolo bar dip
\n - tremolo bar dive
-/n - tremolo bar Release up
/n\ - tremolo bar inverted dip
/n - tremolo bar return
-\n - tremolo bar Release down
S - shift slide
s - legato slide
/ -  slide into from below or out of upwards
\ -  slide into from above or out of downwards
~ - vibrato
W - wide vibrato
tr - trill
TP - tremolo picking
T - tapping
S - slap
P - pop
< - fade in
^ - brush up
v - brush down

            
            
Suggest correction
Creating personal tab
Creating personal tab
You can edit any tab online and save it as your Personal.

You can edit, replace or remove any tab part or add personal notes – all changes will be seen only by you.

Personal tabs can be accessed anytime from any device, even offline.
Learn more »
Give kudos to tab author, rate the tab!
1 2 3 4 5
comments
print report bad tab
guest
You may want to rate the tab now too:
select rating
Wanna post a correction for this tab? Suggest correction