Oops, an error
Loading. Please wait.

Ride The Wings Of Pestilence tab

version 2
754 views 1 this week
1 commentread comment
1 2 3 4 5
1 last vote to show rating
add to favorites
×
Save as Personal and add changes to this tab that will be seen only by you. Learn more ›
×
You can save this tab as Personal to edit and correct it or add notes. All changes will be seen only by you. Learn more »
launch autoscroll
font size
0
reset
how to read this tab
guitar tuner
edit
Autoscroll
slow
fast
+/-
esc
set tempo
stop
-------------------------------------------------------------------------------
             RIDE THE WINGS OF PESTILENCE - FROM FIRST TO LAST
-------------------------------------------------------------------------------
Tabbed by: Jordan
Email: iwantmusic57@gmail.com

Tuning: Dropped D (Low To High DADGBE)

GUITAR ONE
INTRO
e|-3333----3333-----5555----6666-------|
B|-----3333----3333-----3333----3333---|
G|-------------------------------------| x4
D|-------------------------------------|
A|-------------------------------------|
D|-------------------------------------|

GUITAR TWO
comes in at second repeat of intro

e|-------------------|
B|-------------------|
G|-------------------|
D|1----------1-1-----|
A|1----------1-1-----|
D|1----------1-1-----|

pickslide then
e|--------------------------------------------|
B|--------------------------------------------|
G|--------------------------------------------|
D|--------------------------------------------| x2
A|1111111111111111-55555555-88888888----------|
D|1111111111111111-55555555-88888888----------|

GUITAR ONE
intro solo
                   (13 11 10)
e|---------------10------------------------10--------|
B|8-8-888-10-888----131110-888888-10101010----131110-|
G|---------------------------------------------------| x2
D|---------------------------------------------------|
A|---------------------------------------------------|
D|---------------------------------------------------|

solo ending
e|10-------10------10-------10-------|
B|--131110---131110--131110---131110-|
G|-----------------------------------| x2
D|-----------------------------------|
A|-----------------------------------|
D|-----------------------------------|

GUITAR TWO


e|--------------------------------------------|
B|--------------------------------------------|
G|--------------------------------------------|
D|--------------------------------------------| x2
A|1-1-1111-1-1-1111-5-5-5555-8--88-888--------|
D|1-1-1111-1-1-1111-5-5-5555-8--88-888--------|

e|-------------------------------------|
B|-------------------------------------|
G|----10-------------------------------|
D|1-------10--7--------1~~~~-----------|
A|1--------------------1~~~~-----------|
D|1--------------------1~~~~-----------|

GUITARS ONE AND TWO
VERSE
e|--------------------------------------------------|
B|--------------------------------------------------|
G|--------------------------------------------------|
D|5-55-5-5---555--555-555-1-11-1-1---111--111-111---| x2
A|5-55-5-5---555--555-555-1-11-1-1---111--111-111---|
D|5-55-5-5---555--555-555-1-11-1-1---111--111-111---|
PM           ...  ... ...            ...  ... ...


GUITAR ONE
PRE CHOURUS
e|------------|
B|------------|
G|------------|
D|---7-5h7----| x6
A|5-----------|
D|------------|

GUITAR TWO
pickslide


GUITARS ONE AND TWO
CHOURUS
e|--------------------------------------------------------------|
B|--------------------------------------------------------------|
G|--------------5--55--88--88------------------333-----222------|
D|5--55-11--11--5--55--88--88-5--55--55-55-000-----000----------| x2
A|5--55-11--11--3--33--66--66-5--55--55-55-000-----000----------|
D|5--55-11--11----------------5--55--55-55-000-----000----------|
PM                                         ...     ...

VERSE
GUITAR ONE
e|--------------------------------------|
B|--------------------------------------|
G|00000000-5-1010101010101010-88888888--|
D|--------------------------------------|
A|--------------------------------------|
D|--------------------------------------|

GUITARS ONE AND TWO
e|--------------------------------------------|
B|--------------------------------------------|
G|--------------------------------------------|
D|\5555555-5555555-1111111-111111-------------|
A|\5555555-5555555-1111111-111111-1p0---------|
D|\5555555-5555555-1111111-111111-----3p0-1p3-|

GUITAR ONE
e|--------------------------------------------------------------------|
B|--------------------------------------------------------------------|
G|--------------------------------------------------------------------|
D|5555555-5555555-5555555-5555555-1111111-1111111-1111111-------------|
A|5555555-5555555-5555555-5555555-1111111-1111111-1111111-1p0---------|
D|5555555-5555555-5555555-5555555-1111111-1111111-1111111-----3p0-1p3-|

GUITAR TWO
e|----------------------------------------------------------------|
B|----------------------------------------------------------------|
G|----------------------------------------------------------------|
D|5555555-5555555-5555555-5555555-1111111-1111111-1111111-1111111-|
A|5555555-5555555-5555555-5555555-1111111-1111111-1111111-1111111-|
D|5555555-5555555-5555555-5555555-1111111-1111111-1111111-1111111-|

PRE CHOURUS
GUITAR ONE
e|------------|
B|------------|
G|------------|
D|---7-5h7----| x4  
A|5-----------|
D|------------|

e|----------|
B|------8---|
G|----------|
D|---7------| x2
A|5---------|
D|----------|

e|------10------8------------|
B|-8-10----8-10----8-10-10qb-|
G|---------------------------|
D|---------------------------|
A|---------------------------|
D|---------------------------|

repeat this part of the prechourus twice

GUITARS ONE AND TWO
e|---------------------------------|
B|---------------------------------|
G|---------------------------------|
D|5555555--5555555-5555555-5555555-|
A|5555555--5555555-5555555-5555555-|
D|5555555--5555555-5555555-5555555-|

GUITARS ONE AND TWO
CHOURUS
e|--------------------------------------------------------------|
B|--------------------------------------------------------------|
G|--------------5--55--88--88------------------333-----222------|
D|5--55-11--11--5--55--88--88-5--55--55-55-000-----000----------| x4
A|5--55-11--11--3--33--66--66-5--55--55-55-000-----000----------|
D|5--55-11--11----------------5--55--55-55-000-----000----------|
PM                                         ...     ...

OUTRO
GUITARS ONE AND TWO

e|----------------------------------|
B|----------------------------------|
G|----333-----222------333-----222--|
D|000-----000------000-----000------|
A|000-----000------000-----000------|
D|000-----000------000-----000------|
PM...     ...      ...     ...


GUITAR TWO
e|------------|
B|------------|
G|------------|
D|00~----00---| x3
A|00~----00---|
D|00~----00---|
PM.      ..

GUITAR ONE

e|-10qb10101010r--10qb10101010r-|
B|------------------------------|
G|------------------------------|
D|------------------------------| x4
A|------------------------------|
D|------------------------------|

GUITAR TWO
e|-------------|
B|-------------|
G|-------------|
D|00----0--0---| x4
A|00----0--0---|
D|00----0--0---|
PM..    .  .

GUITAR TWO END ON
e|------|
B|------|
G|------|
D|00----| 
A|00----|
D|00----|
PM..


| /  slide up
| \  slide down
| h  hammer-on
| p  pull-off
| ~  vibrato
| +  harmonic
| x  Mute note
| qb quarter bend
| r  release (bend)
==============================================================================

            
            
Suggest correction
Creating personal tab
Creating personal tab
You can edit any tab online and save it as your Personal.

You can edit, replace or remove any tab part or add personal notes – all changes will be seen only by you.

Personal tabs can be accessed anytime from any device, even offline.
Learn more »
Give kudos to tab author, rate the tab!
1 2 3 4 5
comments
print report bad tab
1 comment total.
0 reply
HH_Emo_666 242 Apr 28, 2006 12:55 PM

intros wrong

guest
You may want to rate the tab now too:
select rating
Wanna post a correction for this tab? Suggest correction