Oops, an error
Loading. Please wait.

Ride The Wings Of Pestilence tab

version 3
2,975 views 1 this week
2 commentsread comments
1 2 3 4 5
x 9
add to favorites
×
Save as Personal and add changes to this tab that will be seen only by you. Learn more ›
×
You can save this tab as Personal to edit and correct it or add notes. All changes will be seen only by you. Learn more »
launch autoscroll
font size
0
reset
how to read this tab
guitar tuner
edit
Autoscroll
slow
fast
+/-
esc
set tempo
stop
-----------------------------------------------------------------------------
              From First To Last-Ride The Wings Of Pestilence
-----------------------------------------------------------------------------
Tabbed by:Chris Thomas
Email:cct6869@hotmail.com
                            
                             Guitar 1
Intro:
e|-3-3-3-3---------3-3-3-3---------5-5-5-5---------6-6-6-6---------------|
B|---------3-3-3-3---------3-3-3-3---------3-3-3-3---------3-3-3-3-------|
G|-----------------------------------------------------------------------|
D|-----------------------------------------------------------------------|
A|-----------------------------------------------------------------------|X4
D|-----------------------------------------------------------------------|

e|---10-----------10----------10----------10----------|
B|------13-11-10-----13-11-10----13-11-10---13-11-10--|
G|----------------------------------------------------|
D|----------------------------------------------------|
A|----------------------------------------------------|X2
D|----------------------------------------------------|

Verse 
e|------------------------------------------|
B|------------------------------------------|
G|------------------------------------------|
D|-5-5-5-5--5-5~--5-5-5-5--5-5-5-5--5-5-5-5-|
A|-5-5-5-5--5-5~--5-5-5-5--5-5-5-5--5-5-5-5-|
D|-5-5-5-5--5-5~--5-5-5-5--5-5-5-5--5-5-5-5-|
                  
e|------------------------------------------|
B|------------------------------------------|
G|------------------------------------------|
D|-1-1-1-1--1-1~--1-1-1-1--1-1-1-1--1-1-1-1-|
A|-1-1-1-1--1-1~--1-1-1-1--1-1-1-1--1-1-1-1-|X2
D|-1-1-1-1--1-1~--1-1-1-1--1-1-1-1--1-1-1-1-|

Pre-Chorus                      
e|-------------------|
B|-------------------|
G|-----2-0-2---2-0-2-|
D|---0-------0-------|
A|-------------------|X3
D|-------------------|

Chorus
e|-------------------------------------------------------------|
B|-------------------------------------------------------------|
G|-------------------------5-5-5-5-5-5-8-8-8-8-8-8-------------|
D|-5-5-5-5-5-5-1-1-1-1-1-1-5-5-5-5-5-5-x-x-x-x-x-x-3-3-3-3-3-3-|
A|-5-5-5-5-5-5-1-1-1-1-1-1-3-3-3-3-3-3-6-6-6-6-6-6-3-3-3-3-3-3-|
D|-5-5-5-5-5-5-1-1-1-1-1-1-------------------------3-3-3-3-3-3-|

e|--------------------------|
B|--------------------------|
G|--------------------------|
D|-------8-8-8-------7-7-7--|
A|-5-5-5-------5-5-5--------|X2
D|--------------------------|

Pre-Verse
e|---------------------------------------------------------------|
B|---------------------------------------------------------------|
G|-3-3-3-3-3-3-3-3-5-5-5-10-10-10-10-10-10-10-10-8-8-8-8-8-8-8-8-|
D|---------------------------------------------------------------|
A|---------------------------------------------------------------|
E|---------------------------------------------------------------|

Verse
e|-------------------------------------------------------------------------|
B|-------------------------------------------------------------------------|
G|-------------------------------------------------------------------------|
D|---5-5-5-5-5-5-5--5-5-5-5-5-5-5--1-1-1-1-1-1-1--1-1-1-1-1-1--------------|
A|---5-5-5-5-5-5-5--5-5-5-5-5-5-5--1-1-1-1-1-1-1--1-1-1-1-1-1--1p0---------|X2
D|---5-5-5-5-5-5-5--5-5-5-5-5-5-5--1-1-1-1-1-1-1--1-1-1-1-1-1------3p0-0h1-|

e|--------------------------------------------|
B|--------------------------------------------|
G|--------------------------------------------|
D|-5-5-5-5-5--5-5-5-5-5--5-5-5-5-5--5-5-5-5-5-|
A|-5-5-5-5-5--5-5-5-5-5--5-5-5-5-5--5-5-5-5-5-|
D|-5-5-5-5-5--5-5-5-5-5--5-5-5-5-5--5-5-5-5-5-|

e|----------------------------------------------|
B|----------------------------------------------|
G|----------------------------------------------|
D|-1-1-1-1-1--1-1-1-1-1--1-1-1-1-1--------------|
A|-1-1-1-1-1--1-1-1-1-1--1-1-1-1-1--1p0---------|X2
D|-1-1-1-1-1--1-1-1-1-1--1-1-1-1-1------3p0-0h1-|

e|-----------------------------------------------------------------|
B|----------------------------8------8-------8-10------------------|
G|-----2-0-2-[X3]------0----5------5------11------8-10-11------8-10|
D|---0-------------0-4----0------0------------------------8-10-----|
A|-----------------------------------------------------------------|X3
D|-----------------------------------------------------------------|

e|-------------------------------------------------------------------------|
B|-------------------------------------------------------------------------|
G|-------------------------------------------------------------------------|
D|-5-5-5-5-5-5-5--5-5-5-5-5-5-5--5-5-5-5-5-5-5--5-5-5-5-5-5-5-5-5-5-5-5-5-5|
A|-5-5-5-5-5-5-5--5-5-5-5-5-5-5--5-5-5-5-5-5-5--5-5-5-5-5-5-5-5-5-5-5-5-5-5|
D|-5-5-5-5-5-5-5--5-5-5-5-5-5-5--5-5-5-5-5-5-5--5-5-5-5-5-5-5-5-5-5-5-5-5-5|

Chorus
e|-------------------------------------------------------------|
B|-------------------------------------------------------------|
G|-------------------------5-5-5-5-5-5-8-8-8-8-8-8-------------|
D|-5-5-5-5-5-5-1-1-1-1-1-1-5-5-5-5-5-5-x-x-x-x-x-x-3-3-3-3-3-3-|
A|-5-5-5-5-5-5-1-1-1-1-1-1-3-3-3-3-3-3-6-6-6-6-6-6-3-3-3-3-3-3-|
D|-5-5-5-5-5-5-1-1-1-1-1-1-------------------------3-3-3-3-3-3-|

e|--------------------------|
B|--------------------------|
G|--------------------------|
D|-------8-8-8-------7-7-7--|
A|-5-5-5-------5-5-5--------|X3
D|--------------------------|

e|------------------------------------------------------------------|
B|------------------------------------------------------------------|
G|-------------------------5-5-5-5-5-5-8-8-8-8-8-8------------------|
D|-5-5-5-5-5-5-1-1-1-1-1-1-5-5-5-5-5-5-x-x-x-x-x-x-3--3--3--3--3--3-|
A|-5-5-5-5-5-5-1-1-1-1-1-1-3-3-3-3-3-3-6-6-6-6-6-6-3--3--3--3--3--3-|
D|-5-5-5-5-5-5-1-1-1-1-1-1-------------------------3--3--3--3--3--3-|

e|-------------------------------------------------|
B|-------------------------------------------------|
G|-------------------------------------------------|
D|-------8-8-8-------7-7-7-------8-8-8-------7-7-7-|
A|-5-5-5-------5-5-5-------5-5-5-------5-5-5-------|
D|-------------------------------------------------|

Outro
e|----------------|
B|----------------|   
G|----------------|
D|--0-0~~-----00--|
A|--0-0~~-----00--|X4
D|--0-0~~-----00--|
              ..

e|----1212121212---1212121212--------|
B|----1616161616---1616161616--------|
G|-----------------------------------|
D|--0------------0-------------0-0~--|
A|--0------------0-------------0-0~--|X13
D|--0------------0-------------0-0~--|
    .            .
=============================================================================
                                  Guitar 2
Intro
e|-------------|
B|-------------|
G|-------------|
D|---1~---1-1--|
A|---1~---1-1--|(then slide)
D|---1~---1-1--|

e|-------------------------------------------------------------------|
B|-------------------------------------------------------------------|
G|-------------------------------------------------------------------|
D|-1-1-1-1-1-1-1-1-1-1-1-1-1-1-1-1--5-5-5-5-5-5-5-5--8-8-8-8-8-8-8-8-|
A|-1-1-1-1-1-1-1-1-1-1-1-1-1-1-1-1--5-5-5-5-5-5-5-5--8-8-8-8-8-8-8-8-|X2
D|-1-1-1-1-1-1-1-1-1-1-1-1-1-1-1-1--5-5-5-5-5-5-5-5--8-8-8-8-8-8-8-8-|

e|--------------------------------------------------|
B|--------------------------------------------------|
G|--------------------------------------------------|
D|---1--1--1-1-1-1--1--1-1-1-5--5--5-5-5-8--8--8----|
A|---1--1--1-1-1-1--1--1-1-1-5--5--5-5-5-8--8--8----|X2
D|---1--1--1-1-1-1--1--1-1-1-5--5--5-5-5-8--8--8----|

e|-----1--------------|
B|-------2------------|
G|---2-----3-2--------|
D|--------------------|
A|--------------------|
D|--------------------|

Verse 
e|------------------------------------------|
B|------------------------------------------|
G|------------------------------------------|
D|-5-5-5-5--5-5~--5-5-5-5--5-5-5-5--5-5-5-5-|
A|-5-5-5-5--5-5~--5-5-5-5--5-5-5-5--5-5-5-5-|
D|-5-5-5-5--5-5~--5-5-5-5--5-5-5-5--5-5-5-5-|
                  
e|------------------------------------------|
B|------------------------------------------|
G|------------------------------------------|
D|-1-1-1-1--1-1~--1-1-1-1--1-1-1-1--1-1-1-1-|
A|-1-1-1-1--1-1~--1-1-1-1--1-1-1-1--1-1-1-1-|X2
D|-1-1-1-1--1-1~--1-1-1-1--1-1-1-1--1-1-1-1-|

Chorus
e|-------------------------------------------------------------|
B|-------------------------------------------------------------|
G|-------------------------------------------------------------|
D|-5-5-5-5-5-5-1-1-1-1-1-1-8-8-8-8-8-8-8-8-8-8-8-8-1-1-1-1-1-1-|
A|-5-5-5-5-5-5-1-1-1-1-1-1-8-8-8-8-8-8-8-8-8-8-8-8-1-1-1-1-1-1-|
D|-5-5-5-5-5-5-1-1-1-1-1-1-8-8-8-8-8-8-8-8-8-8-8-8-1-1-1-1-1-1-|

e|--------------------------|
B|--------------------------|
G|--------------------------|
D|-0-0-0-------0-0-0--------|
A|-0-0-0-------0-0-0--------|X2
D|-0-0-0-------0-0-0--------|

Verse
e|-------------------------------------------------------------|
B|-------------------------------------------------------------|
G|-------------------------------------------------------------|
D|---5-5-5-5-5-5-5--5-5-5-5-5-5-5--1-1-1-1-1-1-1--1-1-1-1-1-1--|
A|---5-5-5-5-5-5-5--5-5-5-5-5-5-5--1-1-1-1-1-1-1--1-1-1-1-1-1--|X2
D|---5-5-5-5-5-5-5--5-5-5-5-5-5-5--1-1-1-1-1-1-1--1-1-1-1-1-1--|

e|--------------------------------------------|
B|--------------------------------------------|
G|--------------------------------------------|
D|-5-5-5-5-5--5-5-5-5-5--5-5-5-5-5--5-5-5-5-5-|
A|-5-5-5-5-5--5-5-5-5-5--5-5-5-5-5--5-5-5-5-5-|
D|-5-5-5-5-5--5-5-5-5-5--5-5-5-5-5--5-5-5-5-5-|

e|--------------------------------------------|
B|--------------------------------------------|
G|--------------------------------------------|
D|-1-1-1-1-1--1-1-1-1-1--1-1-1-1-1--1-1-1-1-1-|
A|-1-1-1-1-1--1-1-1-1-1--1-1-1-1-1--1-1-1-1-1-|X2
D|-1-1-1-1-1--1-1-1-1-1--1-1-1-1-1--1-1-1-1-1-|

Pre-Chorus
|------10----10------------------|
|----10----10----10-10b(11)r10---|
|--12----10----------------------|
|--------------12----------------|
|--------------------------------|(you can hear when)
|--------------------------------|

e|--------------------------------------------------------------------------|
B|--------------------------------------------------------------------------|
G|--------------------------------------------------------------------------|
D|-5-5-5-5-5-5-5--5-5-5-5-5-5-5--5-5-5-5-5-5-5--5-5-5-5-5-5-5-5-5-5-5-5-5-5-|
A|-5-5-5-5-5-5-5--5-5-5-5-5-5-5--5-5-5-5-5-5-5--5-5-5-5-5-5-5-5-5-5-5-5-5-5-|
D|-5-5-5-5-5-5-5--5-5-5-5-5-5-5--5-5-5-5-5-5-5--5-5-5-5-5-5-5-5-5-5-5-5-5-5-|

Chorus
e|-------------------------------------------------------------|
B|-------------------------------------------------------------|
G|-------------------------------------------------------------|
D|-5-5-5-5-5-5-1-1-1-1-1-1-8-8-8-8-8-8-8-8-8-8-8-8-1-1-1-1-1-1-|
A|-5-5-5-5-5-5-1-1-1-1-1-1-8-8-8-8-8-8-8-8-8-8-8-8-1-1-1-1-1-1-|
D|-5-5-5-5-5-5-1-1-1-1-1-1-8-8-8-8-8-8-8-8-8-8-8-8-1-1-1-1-1-1-|

e|--------------------------|
B|--------------------------|
G|--------------------------|
D|-0-0-0-------0-0-0--------|
A|-0-0-0-------0-0-0--------|X3
D|-0-0-0-------0-0-0--------|

e|------------------------------------------------------------------|
B|------------------------------------------------------------------|
G|------------------------------------------------------------------|
D|-5-5-5-5-5-5-1-1-1-1-1-1-8-8-8-8-8-8-8-8-8-8-8-8-1--1--1--1--1--1-|
A|-5-5-5-5-5-5-1-1-1-1-1-1-8-8-8-8-8-8-8-8-8-8-8-8-1--1--1--1--1--1-|
D|-5-5-5-5-5-5-1-1-1-1-1-1-8-8-8-8-8-8-8-8-8-8-8-8-1--1--1--1--1--1-|

e|-------------------------------------------------|
B|-------------------------------------------------|
G|-------------------------------------------------|
D|-0-0-0-------0-0-0-------0-0-0-------0-0-0-------|
A|-0-0-0-------0-0-0-------0-0-0-------0-0-0-------|
D|-0-0-0-------0-0-0-------0-0-0-------0-0-0-------|

Outro
e|----------------|
B|----------------|   
G|----------------|
D|--0-0~~-----00--|
A|--0-0~~-----00--|X4
D|--0-0~~-----00--|
              ..

e|----1010101010---1010101010--------|
B|-----------------------------------|
G|-----------------------------------|
D|--0------------0-------------0-0~--|
A|--0------------0-------------0-0~--|X13
D|--0------------0-------------0-0~--|
    .            .

            
            
Suggest correction
Creating personal tab
Creating personal tab
You can edit any tab online and save it as your Personal.

You can edit, replace or remove any tab part or add personal notes – all changes will be seen only by you.

Personal tabs can be accessed anytime from any device, even offline.
Learn more »
comments
print report bad tab
2 comments total.
0 reply
blink182_4_life 372 Mar 20, 2006 03:47 PM

nice

0 reply
(sic)ness6669 207 May 19, 2006 11:19 AM

you forgot guitar 2 in the intro other than that amazing tab!

guest
You may want to rate the tab now too:
select rating
Wanna post a correction for this tab? Suggest correction