Oops, an error
Loading. Please wait.

Ride The Wings Of Pestilence tab

version 8
3,374 views 1 this week
3 commentsread comments
1 2 3 4 5
1 last vote to show rating
add to favorites
×
Save as Personal and add changes to this tab that will be seen only by you. Learn more ›
×
You can save this tab as Personal to edit and correct it or add notes. All changes will be seen only by you. Learn more »
launch autoscroll
font size
0
reset
how to read this tab
guitar tuner
edit
Autoscroll
slow
fast
+/-
esc
set tempo
stop
Artist: From First To Last
Song: Ride The Wings of Pestilence
Album: Dear Diary, My Teen Angst Has A Bodycount


Drop-D

Key:
~ let ring out
PM... Palm Mute
^ bend
/ slide up/slide to next note
\ slide down
() Ghost note- Note where you're not sure if it's really there.
p Pull off
h Hammer
b bend
Intro(Guitar 1)
e|-3333----3333----5555----6666----------|
b|-----3333----3333----3333----3333------|
g|---------------------------------------|x4
d|---------------------------------------|
a|---------------------------------------|
D|---------------------------------------|

Then do this for Intro Part 2:
e|-----------------------------10----------|-----------|-10----------|
b|-8-8-10-8-8-11-8-8-10-8-11-8----13-11-10-|x4 Then do-|----13-11-10-|
g|-----------------------------------------|-----------|-------------|
d|-----------------------------------------|-----------|-------------|x8
a|-----------------------------------------|-----------|-------------|
D|-----------------------------------------|-----------|-------------|

Intro(Guitar 2-Let guitar 1 play intro once then come in on second time)
e|------------|
b|------------|
g|------------|
d|-1~---1-1-\-|x1
a|-1~---1-1-\-|
D|-1~---1-1-\-|

Intro Part II(Guitar 2)
e|-------------------------------------------------------------------|
b|-------------------------------------------------------------------|
g|-------------------------------------------------------------------|
d|-1-1-1-1-1-1-1-1-1-1-1-1-1-1-1-1--5-5-5-5-5-5-5-5--8-8-8-8-8-8-8-8-|x2
a|-1-1-1-1-1-1-1-1-1-1-1-1-1-1-1-1--5-5-5-5-5-5-5-5--8-8-8-8-8-8-8-8-|
D|-1-1-1-1-1-1-1-1-1-1-1-1-1-1-1-1--5-5-5-5-5-5-5-5--8-8-8-8-8-8-8-8-|

Intro Part II(Guitar 2)same chords, different strumming.
e---------------------------------------------------------------|
b---------------------------------------------------------------|
g---------------------------------------------------------------|
d---1-1--1-1-1-1--1-1--1-1-1-1--5-5--5-5-5-5--8-8--8-8-8-8------|x2
a---1-1--1-1-1-1--1-1--1-1-1-1--5-5--5-5-5-5--8-8--8-8-8-8------|
D---1-1--1-1-1-1--1-1--1-1-1-1--5-5--5-5-5-5--8-8--8-8-8-8------|

While guitar 1 is doing his ending:
e|-10--------------|
b|----13-11-10-----|x8

Guitar 2 goes:
e|-----1-----------|
b|-------1---------|
g|---------2/3-----|
d|-1~--------1~--\-|
a|-1~--------1~--\-|
D|-1~--------1~--\-|


Verse 1(Guitar 2)(Guitar 1 has a lead part but it's VERY hard to hear it.)
e|---------------------------------------------------------------------|
b|---------------------------------------------------------------------|
g|-7777-7--7-7~--7777-7--77777-77777--3333-3--3-3~--3333-3-33333-33333-|
d|-5555-5--5-5~--5555-5--55555-55555--1111-1--1-1~--1111-1-11111-11111-|x2
a|-5555-5--5-5~--5555-5--55555-55555--1111-1--1-1~--1111-1-11111-11111-|
D|-5555-5--5-5~--5555-5--55555-55555--1111-1--1-1~--1111-1-11111-11111-|
PM ....          ....    ..... .....  ....          ....   ..... .....

Pre Chorus (Guitar 1 Clean)
e|----------------------------------------------------------------|
b|----------------------------------------------------------------|
g|-------------------------------------------------------------0~-|
d|--------5-----3~---------5-----3~---------5-----3~--------1-----|x2
a|-----3----------------3----------------3---------------1--------|
D|-/3--------3-------3--------3-------3--------3------1-----------|

Chorus (Guitar 2)(Pick slide when Guitar 1 is on 3rd pre-chorus part of the 2nd time around.)
e--------------------------------------------------------------------------|
b--------------------------------------------------------------------------|
g---7--7-7-7-7--3--3-3-3-3--5--5-5-5-5--7--7-7-7-7--3--3-3-3-3--3--3-3-3-3-|
d-\-5--5-5-5-5--1--1-1-1-1--5--5-5-5-5--7--7-7-7-7--1--1-1-1-1--1--1-1-1-1-|
a-\-5--5-5-5-5--1--1-1-1-1--3--3-3-3-3--5--5-5-5-5--1--1-1-1-1--1--1-1-1-1-|
D-\-5--5-5-5-5--1--1-1-1-1--------------------------1--1-1-1-1--1--1-1-1-1-|

Chorus(Guitar 2 Cont.)
e|-----------------------------|
b|-----------------------------|
g|---------3-3-3---------2-2-2-|
d|--1-1-1---------0-0-0--------|Chorus x2
a|--1-1-1---------0-0-0--------|
D|--1-1-1---------0-0-0--------|
PM  . . .         . . .

Chorus(Guitar 1)
e|------------------------------------------------------------------------|
b|------------------------------------------------------------------------|
g|-7--7-7-7-7--3--3-3-3-3--5--5-5-5-5--7--7-7-7-7--8--8-8-8-8--8--8-8-8-8-|
d|-5--5-5-5-5--1--1-1-1-1--5--5-5-5-5--7--7-7-7-7--x--x-x-x-x--x--x-x-x-x-|
a|-5--5-5-5-5--1--1-1-1-1--3--3-3-3-3--5--5-5-5-5--6--6-6-6-6--6--6-6-6-6-|
D|-5--5-5-5-5--1--1-1-1-1-------------------------------------------------|
Chorus(Cont.)
e|-----------------------------|
b|-----------------------------|
g|---------3-3-3---------2-2-2-|
d|--1-1-1---------0-0-0--------|Chorus x2
a|--1-1-1---------0-0-0--------|
D|--1-1-1---------0-0-0--------|
PM  . . .         . . .

Post Chorus(Guitar 1)
e|-6-6-6-6-6-6--5-5-5-5-5-5---------10---------(6)-|
b|-8-8-8-8-8-8--8-8-8-8-8-8----8---------(8)-------|
g|-0~-----------0~----------10---10----8-----8~----|
d|-------------------------------------------------|
a|-------------------------------------------------|
D|-------------------------------------------------|

Verse (Screaming part)(Guitar 2)(Play this x2)
e|-------------------------------------------------------------------------|
b|-------------------------------------------------------------------------|
g|---7-7-7-7-7-7-7--7-7-7-7-7-7-7--3-3-3-3-3-3-3--3-3-3-3-3-3--------------|
d|12/5-5-5-5-5-5-5--5-5-5-5-5-5-5--1-1-1-1-1-1-1--1-1-1-1-1-1--------------|
a|12/5-5-5-5-5-5-5--5-5-5-5-5-5-5--1-1-1-1-1-1-1--1-1-1-1-1-1--1p0---------|
D|12/5-5-5-5-5-5-5--5-5-5-5-5-5-5--1-1-1-1-1-1-1--1-1-1-1-1-1------1h3-0h1-|

Verse Pt.2 (Guitar 2)(Same chords, different strumming)
e|-------------------------------------------------------------------|
b|-------------------------------------------------------------------|
g|-7-7-7-7-7--7-7-7-7-7--7-7-7-7-7--7-7-7-7-7--3-3-3-3-3--3-3-3-3-3--|
d|-5-5-5-5-5--5-5-5-5-5--5-5-5-5-5--5-5-5-5-5--1-1-1-1-1--1-1-1-1-1--|
a|-5-5-5-5-5--5-5-5-5-5--5-5-5-5-5--5-5-5-5-5--1-1-1-1-1--1-1-1-1-1--|
D|-5-5-5-5-5--5-5-5-5-5--5-5-5-5-5--5-5-5-5-5--1-1-1-1-1--1-1-1-1-1--|

Verse Pt.2 Cont.
e|------------------------|
b|------------------------|
g|-3-3-3-3-3--------------|
d|-1-1-1-1-1--------------|x2
a|-1-1-1-1-1--1p0---------|
D|-1-1-1-1-1------1h3-0h1-|

Verse(Guitar 1)(Play behind Guitar 2 and LISTEN HARD for picking)
e|-6-6-6-6-6-6--6-6-6-6-6-6--5-5-5-5-5-5--5-5-5-5-5-5----------10---------10-|
b|-8-8-8-8-8-8--8-8-8-8-8-8--8-8-8-8-8-8--8-8-8-8-8-8-----8-----------8------|
g|-7-7-7-7-7-7--7-7-7-7-7-7--7-7-7-7-7-7--7-7-7-7-7-7--10---10-----10---10---|
d|---------------------------------------------------------------------------|
a|---------------------------------------------------------------------------|
D|---------------------------------------------------------------------------|

Guitar 1 cont.
e|---------(6)----------(6)---|
b|---(8)----------(8)---------|
g|-8-----8------8-----8-------|
d|----------------------------|x2
a|----------------------------|
D|----------------------------|

Verse Pt.2 (Guitar 1)(NOTE:Only play this part when Guitar 2 is on fret 1 of verse part 2.)
e|------------10------------10-------------(6)-------------(6)-|
b|-----8----8--------8----8-------(8)---(8)-------(8)---(8)----|
g|-10----10-------10---10-------8-----8---------8-----8--------|
d|-------------------------------------------------------------|x2
a|-------------------------------------------------------------|
D|-------------------------------------------------------------|

Pre-Chorus(Guitar 1 Clean)(PLAY WHOLE PRE-CHORUS TWICE!)
e|----------------------------------------------------------------|
b|----------------------------------------------------------------|
g|-------------------------------------------------------------0~-|
d|--------5-----3~---------5-----3~---------5-----3~--------1-----|x1
a|-----3----------------3----------------3---------------1--------|
D|-/3--------3-------3--------3-------3--------3------1-----------|

Pre Chorus Part 2(Guitar 1 clean)
e|-------3---|
b|---1-----1-|
g|-----------|x4
d|-----------|
a|-1---1-----|
D|-----------|

Guitar 1 plays only in Pre-Chorus Part 2. Since Guitar 2 does his part 4 times, Guitar 1 
in on the 2nd time like this:
e|------10------8------5b6-5b6-5~-|
b|-8h10-----6h8----4h6------------|
g|--------------------------------|
d|--------------------------------|x2
a|--------------------------------|
D|--------------------------------|

Post Chorus (Guitar 2)
e|-----------------------------------------------------------------------|
g|-----------------------------------------------------------------------|
b|-7-7-7-7-7-7-7--7-7-7-7-7-7-7--7-7-7-7-7-7-7--7-7-7-7-7-7--7-7-7-7-7-7-|
d|-5-5-5-5-5-5-5--5-5-5-5-5-5-5--5-5-5-5-5-5-5--5-5-5-5-5-5--5-5-5-5-5-5-|x1
a|-5-5-5-5-5-5-5--5-5-5-5-5-5-5--5-5-5-5-5-5-5--5-5-5-5-5-5--5-5-5-5-5-5-|
D|-5-5-5-5-5-5-5--5-5-5-5-5-5-5--5-5-5-5-5-5-5--5-5-5-5-5-5--5-5-5-5-5-5-|

End Chorus(Guitar 1)
e|-------------------------------------------------------------------------|
b|-------------------------------------------------------------------------|
g|\-7--7-7-7-7--3--3-3-3-3--5--5-5-5-5--7--7-7-7-7--8--8-8-8-8--8--8-8-8-8-|
d|\-5--5-5-5-5--1--1-1-1-1--5--5-5-5-5--7--7-7-7-7--x--x-x-x-x--x--x-x-x-x-|
a|\-5--5-5-5-5--1--1-1-1-1--3--3-3-3-3--5--5-5-5-5--6--6-6-6-6--6--6-6-6-6-|
D|\-5--5-5-5-5--1--1-1-1-1-------------------------------------------------|
End Chorus(Guitar 1 Cont.)
e|-----------------------------|
b|-----------------------------|
g|---------3-3-3---------2-2-2-|
d|--1-1-1---------0-0-0--------|x4
a|--1-1-1---------0-0-0--------|
D|--1-1-1---------0-0-0--------|
PM  . . .         . . .

End Chorus(Guitar 2)
e|-------------------------------------------------------------------------|
b|-------------------------------------------------------------------------|
g|--7--7-7-7-7--3--3-3-3-3--5--5-5-5-5--7--7-7-7-7--3--3-3-3-3--3--3-3-3-3-|
d|--5--5-5-5-5--1--1-1-1-1--5--5-5-5-5--7--7-7-7-7--1--1-1-1-1--1--1-1-1-1-|
a|--5--5-5-5-5--1--1-1-1-1--3--3-3-3-3--5--5-5-5-5--1--1-1-1-1--1--1-1-1-1-|
D|--5--5-5-5-5--1--1-1-1-1--------------------------1--1-1-1-1--1--1-1-1-1-|

End Chorus(Guitar 2 Cont.)
e|-----------------------------|
b|-----------------------------|
g|---------3-3-3---------2-2-2-|
d|--1-1-1---------0-0-0--------|x4...But do the continued part 2 times.
a|--1-1-1---------0-0-0--------|
D|--1-1-1---------0-0-0--------|
PM  . . .         . . .

Outro(Guitar 2)
e|---6-6-6-6-6-6-6-6-6-6-6-6---5-5-5-5-5-5-5-5-5-5-5-5-|
b|---8-8-8-8-8-8-8-8-8-8-8-8---8-8-8-8-8-8-8-8-8-8-8-8-|
g|---7-7-7-7-7-7-7-7-7-7-7-7---7-7-7-7-7-7-7-7-7-7-7-7-|
d|-0-0~----------------------0-0-----------------------|x7
a|-0-0~----------------------0-0-----------------------|
D|-0-0~----------------------0-0-----------------------|
PM .                         . .

Outro(Guitar 1)(Let Guitar 2 play his part 3 times before you come in)
e|-10----10----10----10----10-------10----10----10----10----10----|
b|-13b15-13b15-13b15-13b15-13b15----13b15-13b15-13b15-13b15-13b15-|
g|----------------------------------------------------------------|
d|----------------------------------------------------------------|x4
a|----------------------------------------------------------------|
D|----------------------------------------------------------------|

This tab took me 3 days to do! With the exception of the leads that are super hard to 
in the background..I'd say this tab is at least 99% correct! and it's hard to actually 
out the strumming, you know? FROM FIRST TO LAST IS AWESOME! e-mail me at odxballx13@gmail.com
Suggest correction
Creating personal tab
Creating personal tab
You can edit any tab online and save it as your Personal.

You can edit, replace or remove any tab part or add personal notes – all changes will be seen only by you.

Personal tabs can be accessed anytime from any device, even offline.
Learn more »
Give kudos to tab author, rate the tab!
1 2 3 4 5
comments
print report bad tab
3 comments total.
0 reply
HH_Emo_666 242 Apr 28, 2006 12:55 PM

intros wrong

0 reply
vertebraille 347 Apr 16, 2007 10:58 PM

The intro is right.
Do you know that you can play the same notes on different strings? like 8th fret b string is the same as 3rd fret e string... i think the whole song is right.

0 reply
ThriceAF 105 Mar 24, 2011 06:58 PM

Bad ass dude ur three days brought a kick ass tab man thanks fftl does rock!

guest
You may want to rate the tab now too:
select rating
Wanna post a correction for this tab? Suggest correction