Oops, an error
Loading. Please wait.

Secrets Dont Make Friends tab

version 1
version 1

Whole song

Interactive

6,410 views 1 this week
2 commentsread comments
1 2 3 4 5
x 11
add to favorites
×
Save as Personal and add changes to this tab that will be seen only by you. Learn more ›
×
You can save this tab as Personal to edit and correct it or add notes. All changes will be seen only by you. Learn more »
launch autoscroll
font size
0
reset
how to read this tab
guitar tuner
edit
Autoscroll
slow
fast
+/-
esc
set tempo
stop
From First To Last
Secrets Don't Make Friends
Robert Lydecker (that guy with those tight ass pants)
Tunning: Drop D

Intro
Guitar 1
e|-------------------------------------------------------------|
B|-------------------------------------------------------------|
G|-----10---10---9---7x—7x-7x---10---10---9---x-x-x—-5*--------|
D|-0~---0----8---7---5x—5x-5x----0----8---7---x-x-x—-5*--------|
A|-0~---0----8---7---5x-5x-5x----0----8---7---x-x-x—-5*--------|
D|-0~---0----8---7---5x-5x-5x----0----8---7---x-x-x------------|

Intro
Guitar 2
e|-------------------------------------------------------------|
B|-------------------------------------------------------------|
G|-----10---10---9---7x-7x-7x---10---10---9---x-x-x------------|
D|-0~---x----x---x----------------------------x-x-x------------|
A|-0~---8----8---7—--5x-5x-5x----8----8---7---x-x-x------------|
D|-0~----------------------------------------------------------|

Verse
Guitar 1
e|-----------------------------------------------------------------------|
B|-----------------------------------------------------------------------|
G|--7~-----9~-----10~------12~-----7~-----9~-----10~------12~------------|
D|------------------------------------------------------------------0~---|
A|------------------------------------------------------------------0~---|
D|------------------------------------------------------------------0~---|

Verse
Guitar 2 (I think this is palm muted, but i'm not sure)
e|-------------------------------------------------------------------------|
B|-------------------------------------------------------------------------|
G|----------10p0-9p0-7p0—9p0--------------10p0-9p0-7p0—9p0--------9~-------|
D|-------7p0---------------------------7p0------------------------x--------|
A|----------------------------------------------------------------7~-------|
D|-------------------------------------------------------------------------|

Chorus (Chords)
Guitar 1
e|-----------------------------|
B|-----------------------------|
G|-----------------------------|
D|--8---0---10---8---12---10---|
A|--8---0---10---8---12---10---|
D|--8---0---10---8---12---10---|

Chorus (Chords)
Guitar 2
e|-------------------------------|
B|-------------------------------|
G|-10---15---14---12---10—--10---|
D|--x----x----x----x----x----x---|
A|--8---13—--12—--10----8----8---|
D|-------------------------------|

Breakdown
Guitar 1 (Left Speaker)
e|---------------------------------------------------|
B|---------------------------------------------------|
G|---------------------------------------------------|
D|-0-0-----7p0--------------3x-3x-3x-3x-3x-3x-3x-----|
A|-0-0—5p0------------------3x-3x-3x-3x-3x-3x-3x-----|
D|-0-0----------------------3x-3x-3x-3x-3x-3x-3x-----|
   . .                      
  
Breakdown
Guitar 2 (Right Speaker)
e|---------------------------------------------------|
B|---------------------------------------------------|
G|---------------------------------------------------|
D|-------------0-0-----7p0--3x-3x-3x-3x-3x-3x-3x-----|
A|-—-----------0-0-5p0------3x-3x-3x-3x-3x-3x-3x-----|
D|-------------0-0----------3x-3x-3x-3x-3x-3x-3x-----|
               . .
(When he starts to scream both guitars start playing the same thing) 

Acoustic part
Guitar 1
e|-----------------------------------------|
B|-----------------------------------------|
G|-----------------------------------------|
D|-8-----0-----10-----8-----0--------------|
A|-8-----0-----10-----8-----0--------------|
D|-8-----0-----10-----8-----0--------------|

Guitar 2 
e|-----------------------------------------------------------------------|
B|10--10---10---10--10--10--10--10--10---8---8----8----8----8---8--10----|
G|--10--10---10---10--10--10--10--10--10--10---10---10---10--10--10--10--|
D|-----------------------------------------------------------------------|X2
A|-----------------------------------------------------------------------|
E|-----------------------------------------------------------------------|


There's an outro but i'm to lazy to tab it.

            
            
Suggest correction
Creating personal tab
Creating personal tab
You can edit any tab online and save it as your Personal.

You can edit, replace or remove any tab part or add personal notes – all changes will be seen only by you.

Personal tabs can be accessed anytime from any device, even offline.
Learn more »
comments
print report bad tab
2 comments total.
0 reply
NirvanaFan101 31 Oct 22, 2006 08:22 AM

This is a great tab... I love this song and now I know how to play it lol thanksss ya.

-1 reply
dropdeadjarrett 40 Jun 22, 2014 10:06 AM

Clearly wrong.

guest
Wanna post a correction for this tab? Suggest correction