Oops, an error
Loading. Please wait.

Shame Shame tab

version 2
version 2

Whole song

Interactive

3,458 views 1 this week
4 commentsread comments
1 2 3 4 5
x 5
add to favorites
×
Save as Personal and add changes to this tab that will be seen only by you. Learn more ›
×
You can save this tab as Personal to edit and correct it or add notes. All changes will be seen only by you. Learn more »
launch autoscroll
font size
0
reset
how to read this tab
guitar tuner
edit
Autoscroll
slow
fast
+/-
esc
set tempo
stop
-------------------------------------------------------------------------------
                    SHAME SHAME - From First To Last
-------------------------------------------------------------------------------
Tabbed by: Tim
Email: Brainyboy790@optonline.net

Tuning: CGCFAd

--------
Guitar 1
--------

Intro
d|----------------------------------|
A|----------------------------------|
F|----------------------------------|
C|-0---0-0-0-0---0-0-0-0---0-0-0-0~-|
G|-0---0-0-0-0---0-0-0-0---0-0-0-0~-|
C|-0---0-0-0-0---0-0-0-0---0-0-0-0~-|

1st Verse
d|--------------------------------------------------|
A|--------------------------------------------------|
F|--------------------------------------------------| 2x
C|--------------------------------------------------|
G|--------------------------------------------------|
C|-444444444444444444444444222222222222777777000000-|

Pre-chorus
d|-----------------------------------------------------------|
A|-----------------------------------------------------------|
F|-----------------------------------------------------------| 2x
C|-000000------000000----------------------------------------|
G|-000000------000000----------4h5p0-----4h5p0-000000--------|
C|-000000------000000------4p0-------4p0--------------333333-|


Chorus
d|-----------------------------------------------|
A|-----------------------------------------------|
F|----------------------777666333333444333-------| 2x
C|-4444------4444-------777666333333444333555555-|
G|-4444------4444-------555444111111222111555555-|
C|-4444------4444-------------------------555555-|


Post-chorus
d|-------------|
A|-------------|
F|-------------| 3x
C|-0~----------|
G|-0~----------|
C|-0~------16\-|


Repeat 1st verse twice


d|-------------------------------------------------------------------------|
A|-------------------------------------------------------------------------|
F|-------------------------------------------------------------------------|
C|-4444444---44------22------77770000-4444444-----44------22------77770000-|
G|-4444444---44------22------77770000-4444444-----44------22------77770000-|
C|-4444444---44------22------77770000-4444444-16\-44------22------77770000-|

Repeat pre-chorus twice
(On first time, instead of ending on C|-3-|  do a pinch harmonic on C|-3-|
                                     G|-3-|                         G|---|
                                     C|-3-|,                        C|---|)

Then repeat the chorus twice

Bridge
d|-----------------------------------------------|
A|-----------------------------------------------|
F|-----------------------------------------------|
C|-777777777777888888888888-4xxxx4xxxx4xxxx4xxxx-|
G|-777777777777888888888888-4xxxx4xxxx4xxxx4xxxx-|
C|-777777777777888888888888-4xxxx4xxxx4xxxx4xxxx-|

d|-----------------------------------------------|
A|-----------------------------------------------|
F|-----------------------------------------------|
C|-777777777777888888888888-4xxxx4xxxx4xxxx4-4-4-|
G|-777777777777888888888888-4xxxx4xxxx4xxxx4-4-4-|
C|-777777777777888888888888-4xxxx4xxxx4xxxx4-4-4-| 

d|---------------------------------------------|
A|---------------------------------------------|
F|---------------------------------------------|
C|-4xxxxxxxxxx4xxxx4xxxx4xxxxxxxxxx4xxxx3xxx0~-|
G|-4xxxxxxxxxx4xxxx4xxxx4xxxxxxxxxx4xxxx3xxx0~-|
C|-4xxxxxxxxxx4xxxx4xxxx4xxxxxxxxxx4xxxx3xxx0~-|


Repeat chorus 4 times


Outro
d|----------|
A|----------|
F|----------| 8x
C|-0~-----4-|
G|-0~-----4-|
C|-0~-16\-4-|



--------
Guitar 2
--------

Intro
d|-9-------------------------|    |-----------------|
A|--10-9--9------------------|    |-----------------|
F|------11-11----------------| 3x |-----------------| 2x
C|-----------12-11-----------|    |-----------11-12-|
G|----------------12-11------|    |------11-12------|
C|---------------------12-11-|    |-11-12-----------|


1st Verse
d|--------------------------------------------------|
A|--------------------------------------------------|
F|--------------------------------------------------|
C|--------------------------------------------------|
G|--------------------------------------------------|
C|-444444444444444444444444222222222222777777000000-|


Pre-chorus
d|---------------------------------------------------------|
A|-------333333------222222--------------------------------|
F|---------------------------------------------------------| 2x
C|---------------------------------------------------------|
G|-----------------------------4h5p0---4h5p0-000000--------|
C|--------------------------4p0-----4p0-------------333333-|


Chorus
d|-4444555544445555-5--4----4-455--4----4-45-|    |-5~-|
A|-------------------77-7767-7---77-7767-7---|    |----|
F|-------------------------------------------| 2x |----|
C|-------------------------------------------|    |----|
G|-------------------------------------------|    |----|
C|-------------------------------------------|    |----|


Rest during the first part of the second verse

2nd verse - pt. 2
d|-9-----------|
A|--10-9--9-10-|
F|------11-----| 16x
C|-------------|
G|-------------|
C|-------------|

Then repeat the pre-chorus twice.
(Again, do the pinch harmonic)

Then repeat the chorus twice.

Bridge
d|--454545454545343434343434----------------------|
A|------------------------------------------------|
F|------------------------------------------------|
C|---------------------------4xxxx4xxxx4xxxx4xxxx-|
G|---------------------------4xxxx4xxxx4xxxx4xxxx-|
C|---------------------------4xxxx4xxxx4xxxx4xxxx-|

d|-454545454545343434343434---------------------|
A|----------------------------------------------|
F|----------------------------------------------|
C|-------------------------4xxxx4xxxx4xxxx4-4-4-|
G|-------------------------4xxxx4xxxx4xxxx4-4-4-|
C|-------------------------4xxxx4xxxx4xxxx4-4-4-|

d|-------------------------------------------|
A|-------------------------------------------|
F|-------------------------------------------|
C|-4xxxxxxxxxx4xxxx4xxxx4xxxxxxxxxx4xxxx3xxx-|
G|-4xxxxxxxxxx4xxxx4xxxx4xxxxxxxxxx4xxxx3xxx-|
C|-4xxxxxxxxxx4xxxx4xxxx4xxxxxxxxxx4xxxx3xxx-|


Then repeat the entire intro one time


Then repeat the chorus 4 more times

Outro
d|-14----14----14-----| Listen for when this part comes in. After you play it a few times, 
A|---1515--1515--1515-| start to slide down and play it at the same time. Of course, if you
F|--------------------| have the right effects for that you can do it that way, but I find if
C|--------------------| it needs to be recreated manually, sliding down does the trick.
G|--------------------|
C|--------------------|



| \  slide down
| h  hammer-on
| p  pull-off
| ~  vibrato/hold
| x  Mute note
===============================================================================

            
            
Suggest correction
Creating personal tab
Creating personal tab
You can edit any tab online and save it as your Personal.

You can edit, replace or remove any tab part or add personal notes – all changes will be seen only by you.

Personal tabs can be accessed anytime from any device, even offline.
Learn more »
comments
print report bad tab
4 comments total. Showing first comments.
+1 reply
!GabbaGabba! 198 Aug 29, 2006 05:19 PM

Dude, I AWSOME tab!!! I was about to post my version when I saw how "not good" the other one on here was but yours sounds better then mine so, Right On Bro. The ending(gtr.2) sounds weird but close enough.
5*!!!

0 reply
fret_it_fast 20 Oct 12, 2006 12:22 PM

this looks DAMN GOOD. im guessing that you tabbed it like this...

Travis- Guitar 1

Matt- Guitar 2

not a problem. just thought id point it out. and Matt is the lead guitarist... so shouldnt he be guitar 1? like i said, it makes no difference because this tab kicks ass.

0 reply
BFMVxx 30 Mar 30, 2007 03:28 AM

This is an awesome tab. It sounds prefect.

guest
You may want to rate the tab now too:
select rating
Wanna post a correction for this tab? Suggest correction