Oops, an error
Loading. Please wait.

Waltz Moore intro tab

version 1
version 1

Intro

Whole song

Interactive

1,037 views 1 this week
5 commentsread comments
1 2 3 4 5
x 3
add to favorites
×
Save as Personal and add changes to this tab that will be seen only by you. Learn more ›
×
You can save this tab as Personal to edit and correct it or add notes. All changes will be seen only by you. Learn more »
launch autoscroll
font size
0
reset
how to read this tab
guitar tuner
edit
Autoscroll
slow
fast
+/-
esc
set tempo
stop
Artist: From First to Last
Song: Waltz Moore
Album: Heroine

From First to Last is awsum and their new album is amazing!!


|--9--3---------------------------|
|--------1--3h4p3--0--4--3--4-----|
|---------------------------------|
|---------------------------------|
|---------------------------------|
|---------------------------------|

                                                 2x
(this part im not too sure about..)                                         
|--6--4--6------------------------|
|---------------------------------|
|---------------------------------|       
|---------------------------------|
|---------------------------------|
|---------------------------------|

            
            
Suggest correction
Creating personal tab
Creating personal tab
You can edit any tab online and save it as your Personal.

You can edit, replace or remove any tab part or add personal notes – all changes will be seen only by you.

Personal tabs can be accessed anytime from any device, even offline.
Learn more »
Give kudos to tab author, rate the tab!
1 2 3 4 5
comments
print report bad tab
5 comments total. Showing first comments.
0 reply
68BRADY68 10 Mar 30, 2006 03:55 PM

hey man, its ok i think, but the first note is on the eighth fret i think, i will try it out, peace

0 reply
68BRADY68 10 Mar 30, 2006 03:57 PM

me again, umm i think the first note is on the 8th fret, then the second is on the 4th, and the rest is rite, soo ya, tell me if im rite, see ya

0 reply
68BRADY68 10 Apr 03, 2006 02:17 PM

[--8-4--------------------------------------------------]
[------1-3h4p3-0-4-3-4----------------------------------]
[-------------------------------------------------------]
[-------------------------------------------------------]
[-------------------------------------------------------]
[-------------------------------------------------------]

like this

guest
Wanna post a correction for this tab? Suggest correction