Oops, an error
Loading. Please wait.

Waves Goodbye intro tab

version 1
version 1

Intro

Whole song

Interactive

1,556 views 1 this week
9 commentsread comments
1 2 3 4 5
x 14
add to favorites
×
Save as Personal and add changes to this tab that will be seen only by you. Learn more ›
×
You can save this tab as Personal to edit and correct it or add notes. All changes will be seen only by you. Learn more »
launch autoscroll
font size
0
reset
how to read this tab
guitar tuner
edit
Autoscroll
slow
fast
+/-
esc
set tempo
stop
-----------------------------|
-----------------------------|
-----------------------------|                x 2
---0---3---------------------|
-1---1-----1----------3---3--|
-------------3------5---5----|

-----------------------------|
-----------------------------|
-----------------------------|
-----------------------------|
---3--6--3--------3--5-------|
-4--4------4----3--3---------|

-----------------------------|
-----------------------------|
-----------------------------|
------------------------3----|
---3--6--3--------3--5-------|
-4--4------4----3--3---------|


main riff throught the whole song

amazing new cd!

            
            
Suggest correction
Creating personal tab
Creating personal tab
You can edit any tab online and save it as your Personal.

You can edit, replace or remove any tab part or add personal notes – all changes will be seen only by you.

Personal tabs can be accessed anytime from any device, even offline.
Learn more »
comments
print report bad tab
9 comments total. Showing first comments.
0 reply
pbtom 10 Mar 23, 2006 03:12 PM

Very good!
Great Cd !

0 reply
irockyourworld 56 Mar 23, 2006 03:46 PM

ive realized i made a mistake. not sure how to edit it. but the last part on the first line should be moved down a string

------------------
------------------
------------------
-----3---3--------
---5---5----------
------------------

0 reply
68BRADY68 10 Mar 24, 2006 02:13 PM

ya man ur rite on the tab now, i was like what the f*** is this guy thinkin, but its cool now. Great cd too, and im tryin for the latest plague tab but its kinda hard, Peace!

guest
You may want to rate the tab now too:
select rating
Wanna post a correction for this tab? Suggest correction