Oops, an error
Loading. Please wait.

Ghost Acoustic tab

version 1
version 1

Whole song

2,059 views 24 this week
no commentswrite comment
1 2 3 4 5
x 3
add to favorites
×
Save as Personal and add changes to this tab that will be seen only by you. Learn more ›
×
You can save this tab as Personal to edit and correct it or add notes. All changes will be seen only by you. Learn more »
launch autoscroll
font size
0
reset
how to read this tab
guitar tuner
edit
Autoscroll
slow
fast
+/-
esc
set tempo
stop
Author
Difficulty
-------------------------------------------------------------------------------
                            GHOST - From Indian Lakes
-------------------------------------------------------------------------------
Tabbed by: G-Sauce
E-mail: giordanopaulj@gmail.com

Tuning: Standard

i used this video of joey playing as a reference:
https://www.youtube.com/watch?v=lR79Ghsj-9A


chord shapes used throughout the song are:

     E    D    A1    A2    Em     G      C      A3

e|-------------------0-----0------0------0------0--------------------------------|
B|---7----7----7-----0-----0------0------0------0--------------------------------|
G|---7----7----7-----0-----0------0------4------0--------------------------------|
D|---5----5----5-----7-----2------4------5------2--------------------------------|
A|---7----5----5-----7-----2------5------3------0--------------------------------|
E|-------------5-----5-----0------3----------------------------------------------|

strumming pattern varies between picking and light strumming, there really is not set 
pattern to the acoustic version. play it how you are most comfortable, its pretty easy
to make it your own.

at different points joey will throw in hammer ons or pull offs during the chorus or prechorus
on the different chords, like this:

                  Em          G          C

e|----------------0-----------0----------0---------------------------------------|
B|----------------0-----------0----------0---------------------------------------|
G|----------------0-----------0--------5p4h5-------------------------------------|
D|----------------2p0-------5p4h5--------5---------------------------------------|
A|----------------2-----------5----------3---------------------------------------|
E|----------------0-----------3--------------------------------------------------|



Intro 

E  x2

Verse

E   D    A1  x2

Pre Chorus

C    A3  x2

Chorus

Em   G  x1  A2   Em  G  x2  A2

Verse

Pre Chorus

Chorus

Solo

e|------------------------------------------------------------------------------------0-|
B|------------------------------------------------------------------------------------0-|
G|------------------7---------------4-------4h5-----5-----------------------------4---4-|
D|----5---5--7--7/9---9b--7-5-----------5-------5/7---7-5-----------7---------5-------5-|
A|--7---7---------------------7\5-3---3---3---------------7-----7-------7\5-3---3-----3-|
E|----------------------------------------------------------5-5---5---5-----------------|

Bridge

Em    G     A2    Em

Chorus

End on Em

************************************

| /   slide up
| \   slide down
| h   hammer-on
| p   pull-off
| ~   vibrato
| +   harmonic
| x   Mute note
| b   Bend
| pb  Pre-bend
| br  Bend release
| pbr Pre-bend release
| brb Bend release bend

************************************

            
            
Suggest correction
Creating personal tab
Creating personal tab
You can edit any tab online and save it as your Personal.

You can edit, replace or remove any tab part or add personal notes – all changes will be seen only by you.

Personal tabs can be accessed anytime from any device, even offline.
Learn more »
Give kudos to tab author, rate the tab!
1 2 3 4 5
comments
print report bad tab
guest
You may want to rate the tab now too:
select rating
Wanna post a correction for this tab? Suggest correction