Oops, an error
Loading. Please wait.

Runner Acoustic tab

version 2
version 2

Whole song

499 views 12 this week
no commentswrite comment
1 2 3 4 5
x 3
add to favorites
×
Save as Personal and add changes to this tab that will be seen only by you. Learn more ›
×
You can save this tab as Personal to edit and correct it or add notes. All changes will be seen only by you. Learn more »
launch autoscroll
font size
0
reset
how to read this tab
guitar tuner
edit
Autoscroll
slow
fast
+/-
esc
set tempo
stop
-------------------------------------------------------------------------------
                             Runner - From Indian Lakes
-------------------------------------------------------------------------------
Tabbed by: G-Sauce
E-mail: giordanopaulj@gmail.com

this version is a bit more complicated than the album version, it is designed for just one guitar.
here is the video i used to reference this tab:
https://www.youtube.com/watch?v=ofptJSgdkqc
I'm quite certain this is 99% accurate with what he is doing in the video.

Tuning: Standard, capo 3

intro x1

e|---------------------------------------------------------------------------|
B|---------------------------------------------------------------------------|
G|-------0-----4----0-----0-----0-----4-----0-----0-----0-----4-----0-----0--|
D|-----2-----2----2-----2-----4-----4-----4-----4-----2-----2-----2-----2----|
A|---3-----3----3-----3-----5-----5-----5-----5-----3-----3-----3-----3------|
E|---------------------------------------------------------------------------|

e|---------------------------------------------------------------------------|
B|---------------------------------------------------------------------------|
G|-------0-----4-----0-----0-------------------------------------------------|
D|-----4-----4-----4-----4---------------------------------------------------|
A|---5-----5-----5-----5-----------------------------------------------------|
E|---------------------------------------------------------------------------|

verse x2

e|---------------------------------------------------------------------------|
B|---------------------------------------------------------------------------|
G|-------0-----4----0-----0-----0-----4-----0-----0-----0-----4-----0-----0--|
D|-----2-----2----2-----2-----4-----4-----4-----4-----2-----2-----2-----2----|
A|---3-----3----3-----3-----5-----5-----5-----5-----3-----3-----3-----3------|
E|---------------------------------------------------------------------------|

e|---------------------------------------------------------------------------|
B|---------------------------------------------------------------------------|
G|-------0-----4-----0-----0-----0-----4-----0-----0-----0-----0-----0-----0-|
D|-----4-----4-----4-----4-----4-----4-----4-----4-----4-----4-----4-----4---|
A|---5-----5-----5-----5-----0-----0-----0-----0-----0-----0-----0-----0-----|
E|---------------------------------------------------------------------------|

e|---------------------------------------------------------------------------|
B|---------------------------------------------------------------------------|
G|--------0-----0------------------------------------------------------------|
D|------4-----4--------------------------------------------------------------|
A|----7-----5----------------------------------------------------------------|
E|---------------------------------------------------------------------------|

chorus (x4)

e|------------------3-----------------------------3--------------------------|
B|-------5----------------5-----------5-----------------4--------------------|
G|-------------4----------------4-----------4-----------------3--------------|
D|-----5-----5----5-----5-----5-----5-----5-----5-----5-----5----------------|
A|---3-----3----3-----3-----3-----0-----0-----0-----0-----0------------------|
E|---------------------------------------------------------------------------|

e|---------------------------------------------------------------------------|
B|-------------5-----------------------5-------------------------------------|
G|-------4-----------4-----4-----4-----------4-----4-------------------------|
D|-----5-----5-----5-----5-----5-----5-----5-----5---------------------------|
A|---------------------------------------0-----2-----------------------------|
E|---3-----3-----3-----3-----3-----3-----------------------------------------|

then on the last time

e|-------------------3-------------------------------------------------------|
B|-------5-----------------5-------------------------------------------------|
G|-------------4-------------------------------------------------------------|
D|-----5-----5-----5-----5---------------------------------------------------|
A|---3-----3-----3-----3-----0~~~--------------------------------------------|
E|---------------------------------------------------------------------------|

on the last chorus, extend it a bit and the last repetition ends a bit differently

e|---------------------------------------------------------------------------|
B|---------------------------------------------------------------------------|
G|-------4-----4-----4-----4-----4-----4-----4-----4-----4-----4-----4-------|
D|-----5-----5-----5-----5-----5-----5-----5-----5-----5-----5-----5---------|
A|---------------------------------------------0-----0-----0-----0-----0~~~~~|
E|---3-----3-----3-----3-----3-----3-----3-----------------------------------|


************************************

| /   slide up
| \   slide down
| h   hammer-on
| p   pull-off
| ~   vibrato
| +   harmonic
| x   Mute note
| b   Bend
| pb  Pre-bend
| br  Bend release
| pbr Pre-bend release
| brb Bend release bend

************************************

            
            
Suggest correction
Creating personal tab
Creating personal tab
You can edit any tab online and save it as your Personal.

You can edit, replace or remove any tab part or add personal notes – all changes will be seen only by you.

Personal tabs can be accessed anytime from any device, even offline.
Learn more »
Give kudos to tab author, rate the tab!
1 2 3 4 5
comments
print report bad tab
guest
You may want to rate the tab now too:
select rating
Wanna post a correction for this tab? Suggest correction