Oops, an error
Loading. Please wait.

Till I Can Walk tab

370 views 6 this week
no commentswrite comment
1 2 3 4 5
3 more votes to show rating
add to favorites
×
Save as Personal and add changes to this tab that will be seen only by you. Learn more ›
×
You can save this tab as Personal to edit and correct it or add notes. All changes will be seen only by you. Learn more »
launch autoscroll
font size
0
reset
how to read this tab
guitar tuner
edit
Autoscroll
slow
fast
+/-
esc
set tempo
stop
Author
Difficulty
intermediate
Til I Can Walk - From Indian Lakes

Tuning: Standard

All chords in the song are barred. you can use the standard barre chords, but if you want
to sound more like the song use the octaves (I've labeled the D2, A2, G2 for simplicity)and
pick them. 


Chords used:

B  A  G  Em  D

    E  A  D  G  B  e
D2: 10 12 12 11 10 10
A2: x  12 14 14 14 12
G2: x  10 12 12 12 10


[Intro/Verse]

e|---------------------------------------------------------------------------|
B|---------------------------------------------------------------------------|
G|--------4-----------2------------4-----------2-----------------------------|
D|----4-------4---4-------4----4-------4---4-------4-------------------------|
A|--2---2---2---0---0---0----2---2---2---0---0---0---------------------------|
E|---------------------------------------------------------------------------|

e|---------------------------------------------------------------------------|
B|---------------------------------------------------------------------------|
G|---------------------------------------------------------------------------|
D|--------5-----------2-----------5-----------2------------------------------|
A|----5-------5---2-------2---5-------5---2-------2--------------------------|
E|--3---3---3---0---0---0---3---3---3---0---0---0----------------------------|

Over the water I hear only traces of things to come
And things that were never there at all
I saw the lights reflecting
I've heard the horns approaching the shore

And over my head I stare into darkness
And when I wake I still see nothing at all
I saw the waves were breaking
I heard the voice is speaking before

My lover wasn't waking I walk alone
Till I can walk no more


[Interlude]

(Play barred D2, A2, G2 and then us D as a transition chord back into intro for verse two)

e|----------------------10-------10----------------------------------------------|
B|-------------------------10-------10-------------------------------------------|
G|-------------11-------------11-------11----------------------------------------|
D|----------12----12-------------------------------------------------------------| x2
A|-------12----------12----------------------------------------------------------|
E|----10-------------------------------------------------------------------------|

e|----------------------12-------12----------------------------------------------|
B|-------------14----------14-------14-------------------------------------------|
G|----------14----14----------14-------14----------------------------------------| x2
D|-------14----------14----------------------------------------------------------|
A|----12-------------------------------------------------------------------------|
E|-------------------------------------------------------------------------------|

e|----------------------10-------10----------------------------------------------|
B|-------------12----------12-------12-------------------------------------------|
G|----------12----12----------12-------12----------------------------------------| x2
D|-------12----------12----------------------------------------------------------|
A|----10-------------------------------------------------------------------------|
E|-------------------------------------------------------------------------------|


[Verse]

e|---------------------------------------------------------------------------|
B|---------------------------------------------------------------------------|
G|--------4-----------2------------4-----------2-----------------------------|
D|----4-------4---4-------4----4-------4---4-------4-------------------------|
A|--2---2---2---0---0---0----2---2---2---0---0---0---------------------------|
E|---------------------------------------------------------------------------|

e|---------------------------------------------------------------------------|
B|---------------------------------------------------------------------------|
G|---------------------------------------------------------------------------|
D|--------5-----------2-----------5-----------2------------------------------|
A|----5-------5---2-------2---5-------5---2-------2--------------------------|
E|--3---3---3---0---0---0---3---3---3---0---0---0----------------------------|


And where is my place I have suddenly decided
My life is important, my love not so much
I meant to be lovely,
I wanted to make the world proud

When no one is lovely
I'll make sure that I am around


[Chorus]

D
Where is my happy song
    A
And where has my patience gone
         G
Did they take it away
                               D  A  G  
Or did I make it leave on my own
D
Where is my happy song
    A
And where has my patience gone
         G
Did they take it away          

Or did I make it leave on my own


[Bridge]

(use all power chords)

B/D A A D G G D D E B B/D A A D          E E 

B 
Love never takes but I've seen it take everything
A/B
There's no one around when I need them the most
      G    E    G          E
Until your love takes them away
       G/A     E  G        
Please restore my ability to love again

(Palm mute on "to love again" )

D A G A


[Chorus]

Where is my happy song
And where has my patience gone
Did they take it away
Or did I make it leave on my own


[End]

D
Suggest correction
Creating personal tab
Creating personal tab
You can edit any tab online and save it as your Personal.

You can edit, replace or remove any tab part or add personal notes – all changes will be seen only by you.

Personal tabs can be accessed anytime from any device, even offline.
Learn more »
Give kudos to tab author, rate the tab!
1 2 3 4 5
comments
print report bad tab
guest
You may want to rate the tab now too:
select rating
Wanna post a correction for this tab? Suggest correction